  0
SECTION
  2
ENTITIES
  0
ARC
  8
MOULD-NEW
 10
2.121321
 20
2.126682
 40
0.046875
 50
266.929714
 51
2.349388
  0
LINE
  8
MOULD-NEW
 10
2.168157
 11
2.165515
 20
2.128604
 21
2.192974
  0
ARC
  8
MOULD-NEW
 10
2.198661
 20
2.424993
 40
0.234375
 50
261.869775
 51
339.822037
  0
ARC
  8
MOULD-NEW
 10
2.8293
 20
2.19324
 40
0.437499
 50
107.02598
 51
159.822212
  0
ARC
  8
MOULD-NEW
 10
2.673747
 20
2.701206
 40
0.09375
 50
287.025995
 51
45.000207
  0
LINE
  8
MOULD-NEW
 10
2.740038
 11
1.814659
 20
2.767497
 21
2.767498
  0
LINE
  8
MOULD-NEW
 10
1.814659
 11
0.0
 20
2.767498
 21
0.952839
  0
LINE
  8
MOULD-NEW
 10
0.0
 11
0.0
 20
0.952839
 21
0.027459
  0
ARC
  8
MOULD-NEW
 10
0.066291
 20
0.09375
 40
0.09375
 50
225.00012
 51
342.973868
  0
ARC
  8
MOULD-NEW
 10
0.574257
 20
-0.061803
 40
0.4375
 50
110.177751
 51
162.973993
  0
ARC
  8
MOULD-NEW
 10
0.342505
 20
0.568837
 40
0.234375
 50
290.177771
 51
8.130061
  0
LINE
  8
MOULD-NEW
 10
0.574524
 11
0.638894
 20
0.601983
 21
0.599342
  0
ARC
  8
MOULD-NEW
 10
0.640816
 20
0.646178
 40
0.046875
 50
267.6501
 51
3.069575
  0
ARC
  8
MOULD-NEW
 10
2.045965
 20
0.721533
 40
1.360293
 50
86.930266
 51
183.069734
  0
LINE
  8
CONSTRUCTION
 10
0.152615
 11
0.10065
 20
-1.038482
 21
-1.166909
  0
LINE
  8
CONSTRUCTION
 10
0.10065
 11
0.20458
 20
-1.166909
 21
-1.166909
  0
LINE
  8
CONSTRUCTION
 10
0.20458
 11
0.152615
 20
-1.166909
 21
-1.038482
  0
LINE
  8
CONSTRUCTION
 10
0.152615
 11
0.559547
 20
-1.038482
 21
-1.03848
  0
LINE
  8
CONSTRUCTION
 10
0.559547
 11
0.507582
 20
-1.03848
 21
-1.166908
  0
LINE
  8
CONSTRUCTION
 10
0.507582
 11
0.611512
 20
-1.166908
 21
-1.166908
  0
LINE
  8
CONSTRUCTION
 10
0.611512
 11
0.559547
 20
-1.166908
 21
-1.03848
  0
LINE
  8
CONSTRUCTION
 10
0.559547
 11
0.966478
 20
-1.03848
 21
-1.03848
  0
LINE
  8
CONSTRUCTION
 10
0.966478
 11
0.914513
 20
-1.03848
 21
-1.166908
  0
LINE
  8
CONSTRUCTION
 10
0.914513
 11
1.018442
 20
-1.166908
 21
-1.166908
  0
LINE
  8
CONSTRUCTION
 10
1.018442
 11
0.966478
 20
-1.166908
 21
-1.03848
  0
LINE
  8
CONSTRUCTION
 10
0.966478
 11
1.373408
 20
-1.03848
 21
-1.03848
  0
LINE
  8
CONSTRUCTION
 10
1.373408
 11
1.321443
 20
-1.03848
 21
-1.166908
  0
LINE
  8
CONSTRUCTION
 10
1.321443
 11
1.425373
 20
-1.166908
 21
-1.166908
  0
LINE
  8
CONSTRUCTION
 10
1.425373
 11
1.373408
 20
-1.166908
 21
-1.03848
  0
LINE
  8
CONSTRUCTION
 10
1.373408
 11
1.780281
 20
-1.03848
 21
-1.038482
  0
LINE
  8
CONSTRUCTION
 10
1.780281
 11
1.728316
 20
-1.038482
 21
-1.166909
  0
LINE
  8
CONSTRUCTION
 10
1.728316
 11
1.832246
 20
-1.166909
 21
-1.166909
  0
LINE
  8
CONSTRUCTION
 10
1.832246
 11
1.780281
 20
-1.166909
 21
-1.038482
  0
LINE
  8
CONSTRUCTION
 10
0.0
 11
4.0
 20
-1.561751
 21
-1.561751
  0
TEXT
  8
TEXT
 10
0.10065
 20
-1.405784
 30
0.0
 40
0.224
 50
0.0
  1
DOVETAIL DESIGNS
  0
TEXT
  8
TEXT
 10
2.276036
 20
-1.551751
 30
0.0
 40
0.099
 50
0.0
  1
& MILLWORK INC.
  0
TEXT
  8
TEXT
 10
1.092458
 20
-1.640461
 30
0.0
 40
0.07
 50
0.0
  1
Established 1979
  0
TEXT
  8
TEXT
 10
0.1
 20
-1.8
 30
0.0
 40
0.1
 50
0.0
  1
Phone: (406) 248-5010    Website: www.dovetailmt.com
  0
TEXT
  8
TEXT
 10
0.0
 20
-0.25
 30
0.0
 40
0.15625
 50
0.0
  1
CN114
  0
TEXT
  8
TEXT
 10
0.0
 20
-0.5
 30
0.0
 40
0.1
 50
0.0
  1
2-13/16"x2-13/16"
  0
TEXT
  8
TEXT
 10
0.0
 20
-0.65
 30
0.0
 40
0.1
 50
0.0
  1
(3/4"x3-7/8")
  0
ENDSEC
  0
EOF
