  0
SECTION
  2
ENTITIES
  0
ARC
  8
APS_GEOMETRY
 10
0.594424
 20
0.81277
 40
0.524117
 50
334.680863
 51
0.0
  0
LINE
  8
APS_GEOMETRY
 10
1.118541
 11
1.310991
 20
0.81277
 21
0.81277
  0
ARC
  8
APS_GEOMETRY
 10
8.997906
 20
0.81277
 40
7.686915
 50
177.254495
 51
180.0
  0
ARC
  8
APS_GEOMETRY
 10
7.038398
 20
0.906735
 40
5.725155
 50
173.826466
 51
177.254466
  0
ARC
  8
APS_GEOMETRY
 10
6.534922
 20
0.96121
 40
5.218741
 50
169.752892
 51
173.826629
  0
ARC
  8
APS_GEOMETRY
 10
5.185351
 20
1.205176
 40
3.847296
 50
164.602603
 51
169.752818
  0
ARC
  8
APS_GEOMETRY
 10
4.483879
 20
1.39835
 40
3.119711
 50
157.758284
 51
164.60243
  0
ARC
  8
APS_GEOMETRY
 10
3.639342
 20
1.743724
 40
2.207283
 50
148.969718
 51
157.758463
  0
ARC
  8
APS_GEOMETRY
 10
3.574139
 20
1.782945
 40
2.131192
 50
139.648032
 51
148.969633
  0
ARC
  8
APS_GEOMETRY
 10
3.825432
 20
1.569434
 40
2.460943
 50
131.058729
 51
139.647908
  0
ARC
  8
APS_GEOMETRY
 10
3.613488
 20
1.812776
 40
2.138242
 50
125.705925
 51
131.059303
  0
ARC
  8
APS_GEOMETRY
 10
3.063532
 20
2.577928
 40
1.195953
 50
117.511505
 51
125.705181
  0
ARC
  8
APS_GEOMETRY
 10
2.931104
 20
2.832212
 40
0.909252
 50
105.693327
 51
117.512041
  0
ARC
  8
APS_GEOMETRY
 10
2.85117
 20
3.116687
 40
0.61376
 50
89.999555
 51
105.692646
  0
LINE
  8
APS_GEOMETRY
 10
2.851175
 11
2.851175
 20
3.730447
 21
4.073897
  0
LINE
  8
APS_GEOMETRY
 10
2.851175
 11
3.193803
 20
4.073897
 21
4.073897
  0
LINE
  8
APS_GEOMETRY
 10
3.193803
 11
3.193803
 20
4.073897
 21
4.50691
  0
LINE
  8
APS_GEOMETRY
 10
3.193803
 11
2.000428
 20
4.50691
 21
4.50691
  0
LINE
  8
APS_GEOMETRY
 10
2.000428
 11
0.0
 20
4.50691
 21
1.042067
  0
LINE
  8
APS_GEOMETRY
 10
0.0
 11
0.0
 20
1.042067
 21
0.0
  0
LINE
  8
APS_GEOMETRY
 10
0.0
 11
0.4375
 20
0.0
 21
0.0
  0
LINE
  8
APS_GEOMETRY
 10
0.4375
 11
0.4375
 20
0.0
 21
0.216506
  0
ARC
  8
APS_GEOMETRY
 10
0.437497
 20
0.992678
 40
0.776172
 50
270.000204
 51
289.933478
  0
ARC
  8
APS_GEOMETRY
 10
0.469379
 20
0.904776
 40
0.682667
 50
289.933147
 51
311.202582
  0
ARC
  8
APS_GEOMETRY
 10
0.51847
 20
0.848705
 40
0.608143
 50
311.202616
 51
334.680783
  0
LINE
  8
CONSTRUCTION
 10
0.152615
 11
0.10065
 20
-1.038482
 21
-1.166909
  0
LINE
  8
CONSTRUCTION
 10
0.10065
 11
0.20458
 20
-1.166909
 21
-1.166909
  0
LINE
  8
CONSTRUCTION
 10
0.20458
 11
0.152615
 20
-1.166909
 21
-1.038482
  0
LINE
  8
CONSTRUCTION
 10
0.152615
 11
0.559547
 20
-1.038482
 21
-1.03848
  0
LINE
  8
CONSTRUCTION
 10
0.559547
 11
0.507582
 20
-1.03848
 21
-1.166908
  0
LINE
  8
CONSTRUCTION
 10
0.507582
 11
0.611512
 20
-1.166908
 21
-1.166908
  0
LINE
  8
CONSTRUCTION
 10
0.611512
 11
0.559547
 20
-1.166908
 21
-1.03848
  0
LINE
  8
CONSTRUCTION
 10
0.559547
 11
0.966478
 20
-1.03848
 21
-1.03848
  0
LINE
  8
CONSTRUCTION
 10
0.966478
 11
0.914513
 20
-1.03848
 21
-1.166908
  0
LINE
  8
CONSTRUCTION
 10
0.914513
 11
1.018442
 20
-1.166908
 21
-1.166908
  0
LINE
  8
CONSTRUCTION
 10
1.018442
 11
0.966478
 20
-1.166908
 21
-1.03848
  0
LINE
  8
CONSTRUCTION
 10
0.966478
 11
1.373408
 20
-1.03848
 21
-1.03848
  0
LINE
  8
CONSTRUCTION
 10
1.373408
 11
1.321443
 20
-1.03848
 21
-1.166908
  0
LINE
  8
CONSTRUCTION
 10
1.321443
 11
1.425373
 20
-1.166908
 21
-1.166908
  0
LINE
  8
CONSTRUCTION
 10
1.425373
 11
1.373408
 20
-1.166908
 21
-1.03848
  0
LINE
  8
CONSTRUCTION
 10
1.373408
 11
1.780281
 20
-1.03848
 21
-1.038482
  0
LINE
  8
CONSTRUCTION
 10
1.780281
 11
1.728316
 20
-1.038482
 21
-1.166909
  0
LINE
  8
CONSTRUCTION
 10
1.728316
 11
1.832246
 20
-1.166909
 21
-1.166909
  0
LINE
  8
CONSTRUCTION
 10
1.832246
 11
1.780281
 20
-1.166909
 21
-1.038482
  0
LINE
  8
CONSTRUCTION
 10
0.0
 11
4.0
 20
-1.561751
 21
-1.561751
  0
TEXT
  8
TEXT
 10
0.10065
 20
-1.405784
 30
0.0
 40
0.224
 50
0.0
  1
DOVETAIL DESIGNS
  0
TEXT
  8
TEXT
 10
2.276036
 20
-1.551751
 30
0.0
 40
0.099
 50
0.0
  1
& MILLWORK INC.
  0
TEXT
  8
TEXT
 10
1.092458
 20
-1.640461
 30
0.0
 40
0.07
 50
0.0
  1
Established 1979
  0
TEXT
  8
TEXT
 10
0.1
 20
-1.8
 30
0.0
 40
0.1
 50
0.0
  1
Phone: (406) 248-5010    Website: www.dovetailmt.com
  0
TEXT
  8
TEXT
 10
0.0
 20
-0.65
 30
0.0
 40
0.1
 50
0.0
  1
(1-1/4"x5-1/2")
  0
TEXT
  8
TEXT
 10
0.0
 20
-0.5
 30
0.0
 40
0.1
 50
0.0
  1
3-3/16"x4-1/2"
  0
TEXT
  8
TEXT
 10
0.0
 20
-0.25
 30
0.0
 40
0.15625
 50
0.0
  1
CN113
  0
ENDSEC
  0
EOF
