  0
SECTION
  2
ENTITIES
  0
ARC
  8
APS_GEOMETRY
 10
2.221255
 20
5.272951
 40
0.304687
 50
274.381107
 51
46.380135
  0
LINE
  8
APS_GEOMETRY
 10
2.43145
 11
1.695038
 20
5.493524
 21
5.493524
  0
LINE
  8
APS_GEOMETRY
 10
1.695038
 11
0.0
 20
5.493524
 21
1.0778
  0
LINE
  8
APS_GEOMETRY
 10
0.0
 11
0.0
 20
1.0778
 21
0.0
  0
LINE
  8
APS_GEOMETRY
 10
0.0
 11
0.261603
 20
0.0
 21
0.0
  0
LINE
  8
APS_GEOMETRY
 10
0.261603
 11
0.261603
 20
0.0
 21
0.189682
  0
ARC
  8
APS_GEOMETRY
 10
0.277689
 20
0.309423
 40
0.120817
 50
262.348643
 51
285.327554
  0
ARC
  8
APS_GEOMETRY
 10
0.278833
 20
0.305243
 40
0.116483
 50
285.328483
 51
309.315381
  0
ARC
  8
APS_GEOMETRY
 10
0.267778
 20
0.318741
 40
0.13393
 50
309.315623
 51
329.351339
  0
ARC
  8
APS_GEOMETRY
 10
0.235156
 20
0.338076
 40
0.171852
 50
329.34997
 51
345.687481
  0
ARC
  8
APS_GEOMETRY
 10
0.207914
 20
0.34502
 40
0.199965
 50
345.689145
 51
357.92934
  0
ARC
  8
APS_GEOMETRY
 10
-0.003626
 20
0.352672
 40
0.411643
 50
357.92892
 51
5.219487
  0
LINE
  8
APS_GEOMETRY
 10
0.40631
 11
0.393486
 20
0.390119
 21
0.488859
  0
ARC
  8
APS_GEOMETRY
 10
1.453174
 20
0.61834
 40
1.067569
 50
184.193541
 51
186.966343
  0
ARC
  8
APS_GEOMETRY
 10
1.119075
 20
0.593838
 40
0.732573
 50
180.578463
 51
184.193104
  0
ARC
  8
APS_GEOMETRY
 10
1.007936
 20
0.592714
 40
0.621428
 50
176.038108
 51
180.578273
  0
ARC
  8
APS_GEOMETRY
 10
0.852868
 20
0.603461
 40
0.465988
 50
170.50759
 51
176.039031
  0
ARC
  8
APS_GEOMETRY
 10
0.799079
 20
0.61244
 40
0.411455
 50
164.276873
 51
170.50559
  0
ARC
  8
APS_GEOMETRY
 10
0.930086
 20
0.575583
 40
0.547548
 50
159.319343
 51
164.279303
  0
ARC
  8
APS_GEOMETRY
 10
1.09702
 20
0.512557
 40
0.725983
 50
156.076948
 51
159.318504
  0
ARC
  8
APS_GEOMETRY
 10
2.256414
 20
-0.001753
 40
1.994333
 50
154.531599
 51
156.077497
  0
ARC
  8
APS_GEOMETRY
 10
-99.155022
 20
48.303054
 40
110.333908
 50
334.530348
 51
334.5703
  0
ARC
  8
APS_GEOMETRY
 10
0.175431
 20
1.074371
 40
0.347149
 50
334.570695
 51
338.457498
  0
ARC
  8
APS_GEOMETRY
 10
0.348274
 20
1.006134
 40
0.161323
 50
338.45876
 51
348.112138
  0
ARC
  8
APS_GEOMETRY
 10
0.440211
 20
0.986783
 40
0.067372
 50
348.110267
 51
5.847397
  0
ARC
  8
APS_GEOMETRY
 10
0.448712
 20
0.987652
 40
0.058827
 50
5.849002
 51
28.018505
  0
ARC
  8
APS_GEOMETRY
 10
0.426854
 20
0.976024
 40
0.083585
 50
28.016796
 51
45.167166
  0
ARC
  8
APS_GEOMETRY
 10
0.443111
 20
1.193209
 40
0.163574
 50
285.122576
 51
17.688223
  0
ARC
  8
APS_GEOMETRY
 10
0.011493
 20
2.268124
 40
1.181598
 50
299.813169
 51
15.722839
  0
LINE
  8
APS_GEOMETRY
 10
1.14888
 11
1.26313
 20
2.588318
 21
2.614391
  0
ARC
  8
APS_GEOMETRY
 10
1.249225
 20
2.675325
 40
0.0625
 50
282.855036
 51
32.129554
  0
LINE
  8
APS_GEOMETRY
 10
1.302153
 11
1.256447
 20
2.708564
 21
2.78134
  0
ARC
  8
APS_GEOMETRY
 10
1.044213
 20
3.047768
 40
0.340627
 50
308.540481
 51
45.216999
  0
LINE
  8
APS_GEOMETRY
 10
1.284159
 11
1.48485
 20
3.289538
 21
3.46355
  0
LINE
  8
APS_GEOMETRY
 10
1.48485
 11
1.418548
 20
3.46355
 21
3.639631
  0
ARC
  8
APS_GEOMETRY
 10
1.24438
 20
4.030062
 40
0.427517
 50
294.041262
 51
339.000016
  0
ARC
  8
APS_GEOMETRY
 10
1.149259
 20
4.066576
 40
0.529406
 50
338.999916
 51
32.130042
  0
ARC
  8
APS_GEOMETRY
 10
1.610738
 20
4.356652
 40
0.015671
 50
150.616357
 51
212.913598
  0
ARC
  8
APS_GEOMETRY
 10
1.617698
 20
4.352732
 40
0.023659
 50
105.948151
 51
150.613476
  0
LINE
  8
APS_GEOMETRY
 10
1.611197
 11
1.628304
 20
4.37548
 21
4.379047
  0
ARC
  8
APS_GEOMETRY
 10
1.608397
 20
4.446918
 40
0.07073
 50
286.346903
 51
310.702326
  0
ARC
  8
APS_GEOMETRY
 10
1.54507
 20
4.520522
 40
0.167827
 50
310.705346
 51
324.209184
  0
ARC
  8
APS_GEOMETRY
 10
1.514702
 20
4.542432
 40
0.205274
 50
324.2059
 51
332.634413
  0
ARC
  8
APS_GEOMETRY
 10
1.121838
 20
4.745762
 40
0.647637
 50
332.635297
 51
336.259985
  0
ARC
  8
APS_GEOMETRY
 10
4.864214
 20
3.099908
 40
3.440665
 50
155.53651
 51
156.260781
  0
ARC
  8
APS_GEOMETRY
 10
2.127206
 20
4.345127
 40
0.433709
 50
151.693739
 51
155.536265
  0
ARC
  8
APS_GEOMETRY
 10
2.156291
 20
4.32947
 40
0.46674
 50
147.240834
 51
151.694611
  0
ARC
  8
APS_GEOMETRY
 10
2.095346
 20
4.368667
 40
0.394279
 50
142.247789
 51
147.23864
  0
ARC
  8
APS_GEOMETRY
 10
2.069394
 20
4.388771
 40
0.361451
 50
113.996766
 51
142.24876
  0
ARC
  8
APS_GEOMETRY
 10
2.138951
 20
4.232527
 40
0.532478
 50
93.023091
 51
113.997146
  0
ARC
  8
APS_GEOMETRY
 10
2.107886
 20
4.803212
 40
0.039062
 50
274.380184
 51
58.00675
  0
LINE
  8
APS_GEOMETRY
 10
2.128582
 11
2.052713
 20
4.836341
 21
4.883737
  0
ARC
  8
APS_GEOMETRY
 10
2.07341
 20
4.916866
 40
0.039063
 50
94.383099
 51
238.004985
  0
LINE
  8
APS_GEOMETRY
 10
2.070425
 11
2.24453
 20
4.955815
 21
4.969154
  0
LINE
  8
CONSTRUCTION
 10
0.152615
 11
0.10065
 20
-1.038482
 21
-1.166909
  0
LINE
  8
CONSTRUCTION
 10
0.10065
 11
0.20458
 20
-1.166909
 21
-1.166909
  0
LINE
  8
CONSTRUCTION
 10
0.20458
 11
0.152615
 20
-1.166909
 21
-1.038482
  0
LINE
  8
CONSTRUCTION
 10
0.152615
 11
0.559547
 20
-1.038482
 21
-1.03848
  0
LINE
  8
CONSTRUCTION
 10
0.559547
 11
0.507582
 20
-1.03848
 21
-1.166908
  0
LINE
  8
CONSTRUCTION
 10
0.507582
 11
0.611512
 20
-1.166908
 21
-1.166908
  0
LINE
  8
CONSTRUCTION
 10
0.611512
 11
0.559547
 20
-1.166908
 21
-1.03848
  0
LINE
  8
CONSTRUCTION
 10
0.559547
 11
0.966478
 20
-1.03848
 21
-1.03848
  0
LINE
  8
CONSTRUCTION
 10
0.966478
 11
0.914513
 20
-1.03848
 21
-1.166908
  0
LINE
  8
CONSTRUCTION
 10
0.914513
 11
1.018442
 20
-1.166908
 21
-1.166908
  0
LINE
  8
CONSTRUCTION
 10
1.018442
 11
0.966478
 20
-1.166908
 21
-1.03848
  0
LINE
  8
CONSTRUCTION
 10
0.966478
 11
1.373408
 20
-1.03848
 21
-1.03848
  0
LINE
  8
CONSTRUCTION
 10
1.373408
 11
1.321443
 20
-1.03848
 21
-1.166908
  0
LINE
  8
CONSTRUCTION
 10
1.321443
 11
1.425373
 20
-1.166908
 21
-1.166908
  0
LINE
  8
CONSTRUCTION
 10
1.425373
 11
1.373408
 20
-1.166908
 21
-1.03848
  0
LINE
  8
CONSTRUCTION
 10
1.373408
 11
1.780281
 20
-1.03848
 21
-1.038482
  0
LINE
  8
CONSTRUCTION
 10
1.780281
 11
1.728316
 20
-1.038482
 21
-1.166909
  0
LINE
  8
CONSTRUCTION
 10
1.728316
 11
1.832246
 20
-1.166909
 21
-1.166909
  0
LINE
  8
CONSTRUCTION
 10
1.832246
 11
1.780281
 20
-1.166909
 21
-1.038482
  0
LINE
  8
CONSTRUCTION
 10
0.0
 11
4.0
 20
-1.561751
 21
-1.561751
  0
TEXT
  8
TEXT
 10
0.10065
 20
-1.405784
 30
0.0
 40
0.224
 50
0.0
  1
DOVETAIL DESIGNS
  0
TEXT
  8
TEXT
 10
2.276036
 20
-1.551751
 30
0.0
 40
0.099
 50
0.0
  1
& MILLWORK INC.
  0
TEXT
  8
TEXT
 10
1.092458
 20
-1.640461
 30
0.0
 40
0.07
 50
0.0
  1
Established 1979
  0
TEXT
  8
TEXT
 10
0.1
 20
-1.8
 30
0.0
 40
0.1
 50
0.0
  1
Phone: (406) 248-5010    Website: www.dovetailmt.com
  0
TEXT
  8
TEXT
 10
0.0
 20
-0.25
 30
0.0
 40
0.15625
 50
0.0
  1
CN110
  0
TEXT
  8
TEXT
 10
0.0
 20
-0.5
 30
0.0
 40
0.1
 50
0.0
  1
2-9/16"x5-1/2"
  0
TEXT
  8
TEXT
 10
0.0
 20
-0.65
 30
0.0
 40
0.1
 50
0.0
  1
(7/8"x6")
  0
ENDSEC
  0
EOF
