  0
SECTION
  2
ENTITIES
  0
ARC
  8
MOLDING
 10
1.997368
 20
4.88176
 40
0.417197
 50
212.058358
 51
255.6865
  0
LINE
  8
MOLDING
 10
1.894226
 11
1.894226
 20
4.477514
 21
4.125235
  0
LINE
  8
MOLDING
 10
1.894226
 11
1.898467
 20
4.125235
 21
4.12311
  0
ARC
  8
MOLDING
 10
1.652309
 20
3.612796
 40
0.566581
 50
43.673876
 51
64.248895
  0
ARC
  8
MOLDING
 10
1.564205
 20
3.528682
 40
0.68839
 50
25.556081
 51
43.673673
  0
ARC
  8
MOLDING
 10
1.585821
 20
3.539018
 40
0.66443
 50
7.150965
 51
25.556163
  0
ARC
  8
MOLDING
 10
1.626417
 20
3.54411
 40
0.623516
 50
348.250576
 51
7.151024
  0
ARC
  8
MOLDING
 10
1.431213
 20
3.584715
 40
0.822898
 50
336.417308
 51
348.250294
  0
ARC
  8
MOLDING
 10
-0.087158
 20
4.247515
 40
2.479628
 50
330.810341
 51
336.417596
  0
ARC
  8
MOLDING
 10
-0.144971
 20
4.279827
 40
2.545858
 50
326.448341
 51
330.81005
  0
ARC
  8
MOLDING
 10
-1.415516
 20
5.122401
 40
4.070396
 50
323.361595
 51
326.448682
  0
ARC
  8
MOLDING
 10
-2.514429
 20
5.939669
 40
5.439899
 50
321.533584
 51
323.361603
  0
ARC
  8
MOLDING
 10
-16.475437
 20
17.031398
 40
23.270664
 50
320.928529
 51
321.533592
  0
ARC
  8
MOLDING
 10
19.990582
 20
-12.573806
 40
23.699951
 50
140.928134
 51
141.527803
  0
ARC
  8
MOLDING
 10
5.666059
 20
-1.190853
 40
5.403405
 50
141.528282
 51
143.378642
  0
ARC
  8
MOLDING
 10
5.134441
 20
-0.795766
 40
4.741052
 50
143.378302
 51
145.954307
  0
ARC
  8
MOLDING
 10
4.801346
 20
-0.57071
 40
4.339054
 50
145.954232
 51
148.714863
  0
ARC
  8
MOLDING
 10
4.8125
 20
-0.577465
 40
4.352094
 50
148.715123
 51
151.498417
  0
ARC
  8
MOLDING
 10
4.690347
 20
-0.511143
 40
4.213098
 50
151.498342
 51
154.344352
  0
ARC
  8
MOLDING
 10
4.623031
 20
-0.478799
 40
4.138415
 50
154.344494
 51
157.261175
  0
ARC
  8
MOLDING
 10
4.481544
 20
-0.419531
 40
3.985016
 50
157.260786
 51
160.255262
  0
ARC
  8
MOLDING
 10
4.408468
 20
-0.393272
 40
3.907365
 50
160.25567
 51
163.333842
  0
ARC
  8
MOLDING
 10
4.264528
 20
-0.350192
 40
3.757117
 50
163.333664
 51
166.499978
  0
LINE
  8
MOLDING
 10
0.611221
 11
0.609471
 20
0.52689
 21
0.519598
  0
LINE
  8
MOLDING
 10
0.609471
 11
0.616854
 20
0.519598
 21
0.517825
  0
ARC
  8
MOLDING
 10
0.487846
 20
-0.050474
 40
0.582758
 50
66.355579
 51
77.210228
  0
ARC
  8
MOLDING
 10
0.54592
 20
0.082165
 40
0.437963
 50
52.964301
 51
66.355854
  0
ARC
  8
MOLDING
 10
0.594259
 20
0.14623
 40
0.357707
 50
36.64499
 51
52.964285
  0
ARC
  8
MOLDING
 10
0.70711
 20
0.23018
 40
0.217055
 50
15.857914
 51
36.644497
  0
ARC
  8
MOLDING
 10
0.741842
 20
0.240046
 40
0.180949
 50
330.372154
 51
15.85821
  0
ARC
  8
MOLDING
 10
0.710458
 20
0.257897
 40
0.217055
 50
309.584869
 51
330.371418
  0
ARC
  8
MOLDING
 10
0.620826
 20
0.366291
 40
0.357707
 50
293.266843
 51
309.586092
  0
ARC
  8
MOLDING
 10
0.58913
 20
0.440022
 40
0.437963
 50
279.874372
 51
293.265931
  0
ARC
  8
MOLDING
 10
0.56429
 20
0.582671
 40
0.582758
 50
269.007887
 51
279.87524
  0
LINE
  8
MOLDING
 10
0.5542
 11
0.0
 20
0.0
 21
0.0
  0
LINE
  8
MOLDING
 10
0.0
 11
0.0
 20
0.0
 21
0.460137
  0
LINE
  8
MOLDING
 10
0.0
 11
0.685437
 20
0.460137
 21
3.315189
  0
LINE
  8
MOLDING
 10
0.685437
 11
1.121566
 20
3.315189
 21
3.315189
  0
LINE
  8
MOLDING
 10
1.121566
 11
1.121566
 20
3.315189
 21
5.125182
  0
LINE
  8
MOLDING
 10
1.121566
 11
1.332926
 20
5.125182
 21
5.125182
  0
LINE
  8
MOLDING
 10
1.332926
 11
1.392196
 20
5.125182
 21
4.839004
  0
ARC
  8
MOLDING
 10
1.302927
 20
4.446841
 40
0.402195
 50
32.058331
 51
77.176098
  0
LINE
  8
CONSTRUCTION
 10
0.152615
 11
0.10065
 20
-1.038482
 21
-1.166909
  0
LINE
  8
CONSTRUCTION
 10
0.10065
 11
0.20458
 20
-1.166909
 21
-1.166909
  0
LINE
  8
CONSTRUCTION
 10
0.20458
 11
0.152615
 20
-1.166909
 21
-1.038482
  0
LINE
  8
CONSTRUCTION
 10
0.152615
 11
0.559547
 20
-1.038482
 21
-1.03848
  0
LINE
  8
CONSTRUCTION
 10
0.559547
 11
0.507582
 20
-1.03848
 21
-1.166908
  0
LINE
  8
CONSTRUCTION
 10
0.507582
 11
0.611512
 20
-1.166908
 21
-1.166908
  0
LINE
  8
CONSTRUCTION
 10
0.611512
 11
0.559547
 20
-1.166908
 21
-1.03848
  0
LINE
  8
CONSTRUCTION
 10
0.559547
 11
0.966478
 20
-1.03848
 21
-1.03848
  0
LINE
  8
CONSTRUCTION
 10
0.966478
 11
0.914513
 20
-1.03848
 21
-1.166908
  0
LINE
  8
CONSTRUCTION
 10
0.914513
 11
1.018442
 20
-1.166908
 21
-1.166908
  0
LINE
  8
CONSTRUCTION
 10
1.018442
 11
0.966478
 20
-1.166908
 21
-1.03848
  0
LINE
  8
CONSTRUCTION
 10
0.966478
 11
1.373408
 20
-1.03848
 21
-1.03848
  0
LINE
  8
CONSTRUCTION
 10
1.373408
 11
1.321443
 20
-1.03848
 21
-1.166908
  0
LINE
  8
CONSTRUCTION
 10
1.321443
 11
1.425373
 20
-1.166908
 21
-1.166908
  0
LINE
  8
CONSTRUCTION
 10
1.425373
 11
1.373408
 20
-1.166908
 21
-1.03848
  0
LINE
  8
CONSTRUCTION
 10
1.373408
 11
1.780281
 20
-1.03848
 21
-1.038482
  0
LINE
  8
CONSTRUCTION
 10
1.780281
 11
1.728316
 20
-1.038482
 21
-1.166909
  0
LINE
  8
CONSTRUCTION
 10
1.728316
 11
1.832246
 20
-1.166909
 21
-1.166909
  0
LINE
  8
CONSTRUCTION
 10
1.832246
 11
1.780281
 20
-1.166909
 21
-1.038482
  0
LINE
  8
CONSTRUCTION
 10
0.0
 11
4.0
 20
-1.561751
 21
-1.561751
  0
TEXT
  8
TEXT
 10
0.10065
 20
-1.405784
 30
0.0
 40
0.224
 50
0.0
  1
DOVETAIL DESIGNS
  0
TEXT
  8
TEXT
 10
2.276036
 20
-1.551751
 30
0.0
 40
0.099
 50
0.0
  1
& MILLWORK INC.
  0
TEXT
  8
TEXT
 10
1.092458
 20
-1.640461
 30
0.0
 40
0.07
 50
0.0
  1
Established 1979
  0
TEXT
  8
TEXT
 10
0.1
 20
-1.8
 30
0.0
 40
0.1
 50
0.0
  1
Phone: (406) 248-5010    Website: www.dovetailmt.com
  0
TEXT
  8
TEXT
 10
0.0
 20
-0.65
 30
0.0
 40
0.1
 50
0.0
  1
(1-1/2"x5-5/16")
  0
TEXT
  8
TEXT
 10
0.0
 20
-0.5
 30
0.0
 40
0.1
 50
0.0
  1
2-1/4"x5-1/8"
  0
TEXT
  8
TEXT
 10
0.0
 20
-0.25
 30
0.0
 40
0.15625
 50
0.0
  1
CN108
  0
ENDSEC
  0
EOF
