  0
SECTION
  2
ENTITIES
  0
ARC
  8
APS_GEOMETRY
 10
0.613637
 20
0.373696
 40
0.437637
 50
180.000028
 51
210.36819
  0
ARC
  8
APS_GEOMETRY
 10
0.474408
 20
0.292113
 40
0.276266
 50
210.367872
 51
254.692052
  0
ARC
  8
APS_GEOMETRY
 10
0.592331
 20
0.722947
 40
0.722947
 50
254.692343
 51
273.655096
  0
ARC
  8
APS_GEOMETRY
 10
0.571627
 20
1.047108
 40
1.047769
 50
273.654899
 51
287.698572
  0
ARC
  8
APS_GEOMETRY
 10
0.541761
 20
1.140688
 40
1.145999
 50
287.698731
 51
298.415316
  0
ARC
  8
APS_GEOMETRY
 10
0.019827
 20
2.105385
 40
2.242838
 50
298.415115
 51
304.88509
  0
ARC
  8
APS_GEOMETRY
 10
-1.472867
 20
4.246267
 40
4.852725
 50
304.885311
 51
307.422517
  0
ARC
  8
APS_GEOMETRY
 10
-2.947961
 20
6.174043
 40
7.280115
 50
307.422499
 51
309.433536
  0
ARC
  8
APS_GEOMETRY
 10
-1.717546
 20
4.677931
 40
5.343037
 50
309.433305
 51
312.020462
  0
ARC
  8
APS_GEOMETRY
 10
-0.863795
 20
3.730424
 40
4.067631
 50
312.02048
 51
315.183557
  0
ARC
  8
APS_GEOMETRY
 10
-0.582095
 20
3.450505
 40
3.670504
 50
315.183757
 51
318.633625
  0
ARC
  8
APS_GEOMETRY
 10
-1.929139
 20
4.636665
 40
5.465359
 50
318.633743
 51
321.195691
  0
ARC
  8
APS_GEOMETRY
 10
-3.076726
 20
5.559548
 40
6.937999
 50
321.195316
 51
322.869938
  0
ARC
  8
APS_GEOMETRY
 10
-13.51319
 20
13.461181
 40
20.028285
 50
322.869971
 51
323.629596
  0
ARC
  8
APS_GEOMETRY
 10
33.489335
 20
-21.154289
 40
38.345237
 50
143.210115
 51
143.629979
  0
ARC
  8
APS_GEOMETRY
 10
8.010451
 20
-2.10074
 40
6.52997
 50
141.564009
 51
143.209568
  0
ARC
  8
APS_GEOMETRY
 10
7.270483
 20
-1.513457
 40
5.585272
 50
138.913411
 51
141.56429
  0
ARC
  8
APS_GEOMETRY
 10
4.470384
 20
0.928072
 40
1.870219
 50
132.560126
 51
138.913424
  0
ARC
  8
APS_GEOMETRY
 10
4.055236
 20
1.380173
 40
1.256425
 50
120.120125
 51
132.560139
  0
ARC
  8
APS_GEOMETRY
 10
3.632151
 20
2.109442
 40
0.413315
 50
91.294491
 51
120.119999
  0
LINE
  8
APS_GEOMETRY
 10
3.622813
 11
3.622813
 20
2.522652
 21
2.682221
  0
LINE
  8
APS_GEOMETRY
 10
3.622813
 11
3.150287
 20
2.682221
 21
2.682221
  0
LINE
  8
APS_GEOMETRY
 10
3.150287
 11
0.0
 20
2.682221
 21
0.675266
  0
LINE
  8
APS_GEOMETRY
 10
0.0
 11
0.0
 20
0.675266
 21
0.381196
  0
LINE
  8
APS_GEOMETRY
 10
0.0
 11
0.176
 20
0.381196
 21
0.381196
  0
LINE
  8
APS_GEOMETRY
 10
0.176
 11
0.176
 20
0.381196
 21
0.373696
  0
LINE
  8
CONSTRUCTION
 10
0.152615
 11
0.10065
 20
-1.038482
 21
-1.166909
  0
LINE
  8
CONSTRUCTION
 10
0.10065
 11
0.20458
 20
-1.166909
 21
-1.166909
  0
LINE
  8
CONSTRUCTION
 10
0.20458
 11
0.152615
 20
-1.166909
 21
-1.038482
  0
LINE
  8
CONSTRUCTION
 10
0.152615
 11
0.559547
 20
-1.038482
 21
-1.03848
  0
LINE
  8
CONSTRUCTION
 10
0.559547
 11
0.507582
 20
-1.03848
 21
-1.166908
  0
LINE
  8
CONSTRUCTION
 10
0.507582
 11
0.611512
 20
-1.166908
 21
-1.166908
  0
LINE
  8
CONSTRUCTION
 10
0.611512
 11
0.559547
 20
-1.166908
 21
-1.03848
  0
LINE
  8
CONSTRUCTION
 10
0.559547
 11
0.966478
 20
-1.03848
 21
-1.03848
  0
LINE
  8
CONSTRUCTION
 10
0.966478
 11
0.914513
 20
-1.03848
 21
-1.166908
  0
LINE
  8
CONSTRUCTION
 10
0.914513
 11
1.018442
 20
-1.166908
 21
-1.166908
  0
LINE
  8
CONSTRUCTION
 10
1.018442
 11
0.966478
 20
-1.166908
 21
-1.03848
  0
LINE
  8
CONSTRUCTION
 10
0.966478
 11
1.373408
 20
-1.03848
 21
-1.03848
  0
LINE
  8
CONSTRUCTION
 10
1.373408
 11
1.321443
 20
-1.03848
 21
-1.166908
  0
LINE
  8
CONSTRUCTION
 10
1.321443
 11
1.425373
 20
-1.166908
 21
-1.166908
  0
LINE
  8
CONSTRUCTION
 10
1.425373
 11
1.373408
 20
-1.166908
 21
-1.03848
  0
LINE
  8
CONSTRUCTION
 10
1.373408
 11
1.780281
 20
-1.03848
 21
-1.038482
  0
LINE
  8
CONSTRUCTION
 10
1.780281
 11
1.728316
 20
-1.038482
 21
-1.166909
  0
LINE
  8
CONSTRUCTION
 10
1.728316
 11
1.832246
 20
-1.166909
 21
-1.166909
  0
LINE
  8
CONSTRUCTION
 10
1.832246
 11
1.780281
 20
-1.166909
 21
-1.038482
  0
LINE
  8
CONSTRUCTION
 10
0.0
 11
4.0
 20
-1.561751
 21
-1.561751
  0
TEXT
  8
TEXT
 10
0.10065
 20
-1.405784
 30
0.0
 40
0.224
 50
0.0
  1
DOVETAIL DESIGNS
  0
TEXT
  8
TEXT
 10
2.276036
 20
-1.551751
 30
0.0
 40
0.099
 50
0.0
  1
& MILLWORK INC.
  0
TEXT
  8
TEXT
 10
1.092458
 20
-1.640461
 30
0.0
 40
0.07
 50
0.0
  1
Established 1979
  0
TEXT
  8
TEXT
 10
0.1
 20
-1.8
 30
0.0
 40
0.1
 50
0.0
  1
Phone: (406) 248-5010    Website: www.dovetailmt.com
  0
TEXT
  8
TEXT
 10
0.0
 20
-0.25
 30
0.0
 40
0.15625
 50
0.0
  1
CN105
  0
TEXT
  8
TEXT
 10
0.0
 20
-0.5
 30
0.0
 40
0.1
 50
0.0
  1
3-5/8"x2-11/16"
  0
TEXT
  8
TEXT
 10
0.0
 20
-0.65
 30
0.0
 40
0.1
 50
0.0
  1
(1-1/16"x4-5/16")
  0
ENDSEC
  0
EOF
