  0
SECTION
  2
ENTITIES
  0
ARC
  8
APS_GEOMETRY
 10
0.828465
 20
-0.014743
 40
0.571986
 50
106.47695
 51
178.52303
  0
LINE
  8
APS_GEOMETRY
 10
0.256669
 11
0.0
 20
0.0
 21
0.0
  0
LINE
  8
APS_GEOMETRY
 10
0.0
 11
0.0
 20
0.0
 21
0.871846
  0
LINE
  8
APS_GEOMETRY
 10
0.0
 11
1.658867
 20
0.871846
 21
3.033723
  0
LINE
  8
APS_GEOMETRY
 10
1.658867
 11
2.001089
 20
3.033723
 21
3.033723
  0
LINE
  8
APS_GEOMETRY
 10
2.001089
 11
2.001089
 20
3.033723
 21
2.324707
  0
ARC
  8
APS_GEOMETRY
 10
2.125519
 20
1.676761
 40
0.659785
 50
100.870616
 51
119.15285
  0
ARC
  8
APS_GEOMETRY
 10
2.175753
 20
1.586734
 40
0.762879
 50
119.153958
 51
135.100196
  0
ARC
  8
APS_GEOMETRY
 10
2.192796
 20
1.569749
 40
0.786941
 50
135.100091
 51
148.719834
  0
ARC
  8
APS_GEOMETRY
 10
2.836066
 20
1.178932
 40
1.539625
 50
148.719606
 51
157.001061
  0
LINE
  8
APS_GEOMETRY
 10
1.418823
 11
1.264595
 20
1.780485
 21
1.39336
  0
ARC
  8
APS_GEOMETRY
 10
0.058577
 20
1.935934
 40
1.322447
 50
326.371144
 51
335.777564
  0
ARC
  8
APS_GEOMETRY
 10
0.51471
 20
1.632579
 40
0.77465
 50
311.981431
 51
326.369218
  0
ARC
  8
APS_GEOMETRY
 10
0.46924
 20
1.683122
 40
0.842636
 50
297.480878
 51
311.980971
  0
ARC
  8
APS_GEOMETRY
 10
0.517453
 20
1.590419
 40
0.738145
 50
281.628147
 51
297.481278
  0
LINE
  8
APS_GEOMETRY
 10
0.666233
 11
0.666233
 20
0.867423
 21
0.533754
  0
LINE
  8
CONSTRUCTION
 10
0.152615
 11
0.10065
 20
-1.038482
 21
-1.166909
  0
LINE
  8
CONSTRUCTION
 10
0.10065
 11
0.20458
 20
-1.166909
 21
-1.166909
  0
LINE
  8
CONSTRUCTION
 10
0.20458
 11
0.152615
 20
-1.166909
 21
-1.038482
  0
LINE
  8
CONSTRUCTION
 10
0.152615
 11
0.559547
 20
-1.038482
 21
-1.03848
  0
LINE
  8
CONSTRUCTION
 10
0.559547
 11
0.507582
 20
-1.03848
 21
-1.166908
  0
LINE
  8
CONSTRUCTION
 10
0.507582
 11
0.611512
 20
-1.166908
 21
-1.166908
  0
LINE
  8
CONSTRUCTION
 10
0.611512
 11
0.559547
 20
-1.166908
 21
-1.03848
  0
LINE
  8
CONSTRUCTION
 10
0.559547
 11
0.966478
 20
-1.03848
 21
-1.03848
  0
LINE
  8
CONSTRUCTION
 10
0.966478
 11
0.914513
 20
-1.03848
 21
-1.166908
  0
LINE
  8
CONSTRUCTION
 10
0.914513
 11
1.018442
 20
-1.166908
 21
-1.166908
  0
LINE
  8
CONSTRUCTION
 10
1.018442
 11
0.966478
 20
-1.166908
 21
-1.03848
  0
LINE
  8
CONSTRUCTION
 10
0.966478
 11
1.373408
 20
-1.03848
 21
-1.03848
  0
LINE
  8
CONSTRUCTION
 10
1.373408
 11
1.321443
 20
-1.03848
 21
-1.166908
  0
LINE
  8
CONSTRUCTION
 10
1.321443
 11
1.425373
 20
-1.166908
 21
-1.166908
  0
LINE
  8
CONSTRUCTION
 10
1.425373
 11
1.373408
 20
-1.166908
 21
-1.03848
  0
LINE
  8
CONSTRUCTION
 10
1.373408
 11
1.780281
 20
-1.03848
 21
-1.038482
  0
LINE
  8
CONSTRUCTION
 10
1.780281
 11
1.728316
 20
-1.038482
 21
-1.166909
  0
LINE
  8
CONSTRUCTION
 10
1.728316
 11
1.832246
 20
-1.166909
 21
-1.166909
  0
LINE
  8
CONSTRUCTION
 10
1.832246
 11
1.780281
 20
-1.166909
 21
-1.038482
  0
LINE
  8
CONSTRUCTION
 10
0.0
 11
4.0
 20
-1.561751
 21
-1.561751
  0
TEXT
  8
TEXT
 10
0.10065
 20
-1.405784
 30
0.0
 40
0.224
 50
0.0
  1
DOVETAIL DESIGNS
  0
TEXT
  8
TEXT
 10
2.276036
 20
-1.551751
 30
0.0
 40
0.099
 50
0.0
  1
& MILLWORK INC.
  0
TEXT
  8
TEXT
 10
1.092458
 20
-1.640461
 30
0.0
 40
0.07
 50
0.0
  1
Established 1979
  0
TEXT
  8
TEXT
 10
0.1
 20
-1.8
 30
0.0
 40
0.1
 50
0.0
  1
Phone: (406) 248-5010    Website: www.dovetailmt.com
  0
TEXT
  8
TEXT
 10
0.0
 20
-0.65
 30
0.0
 40
0.1
 50
0.0
  1
(3/4"x3-5/8")
  0
TEXT
  8
TEXT
 10
0.0
 20
-0.5
 30
0.0
 40
0.1
 50
0.0
  1
2"x3-1/16"
  0
TEXT
  8
TEXT
 10
0.0
 20
-0.25
 30
0.0
 40
0.15625
 50
0.0
  1
CN10
  0
ENDSEC
  0
EOF
