  0
SECTION
  2
ENTITIES
  0
ARC
  8
APS_GEOMETRY
 10
0.707107
 20
0.0
 40
0.464039
 50
90.0
 51
180.0
  0
LINE
  8
APS_GEOMETRY
 10
0.243068
 11
0.0
 20
0.0
 21
0.0
  0
LINE
  8
APS_GEOMETRY
 10
0.0
 11
0.0
 20
0.0
 21
0.795495
  0
LINE
  8
APS_GEOMETRY
 10
0.0
 11
2.393967
 20
0.795495
 21
3.189462
  0
LINE
  8
APS_GEOMETRY
 10
2.393967
 11
2.88367
 20
3.189462
 21
3.215126
  0
LINE
  8
APS_GEOMETRY
 10
2.88367
 11
2.88367
 20
3.215126
 21
2.670418
  0
ARC
  8
APS_GEOMETRY
 10
3.364191
 20
0.693144
 40
2.034825
 50
103.659341
 51
108.134212
  0
ARC
  8
APS_GEOMETRY
 10
3.344748
 20
0.752483
 40
1.972382
 50
108.133966
 51
112.54552
  0
ARC
  8
APS_GEOMETRY
 10
3.298101
 20
0.864873
 40
1.850696
 50
112.545831
 51
122.33845
  0
ARC
  8
APS_GEOMETRY
 10
3.056888
 20
1.245871
 40
1.39976
 50
122.338547
 51
134.259518
  0
ARC
  8
APS_GEOMETRY
 10
2.932277
 20
1.373748
 40
1.221209
 50
134.25959
 51
146.70189
  0
ARC
  8
APS_GEOMETRY
 10
4.603602
 20
0.275956
 40
3.220828
 50
146.701657
 51
152.572923
  0
LINE
  8
APS_GEOMETRY
 10
1.744803
 11
1.606817
 20
1.759531
 21
1.49279
  0
ARC
  8
APS_GEOMETRY
 10
-0.462848
 20
2.611814
 40
2.352813
 50
323.775088
 51
331.600863
  0
ARC
  8
APS_GEOMETRY
 10
0.531796
 20
1.883184
 40
1.119842
 50
309.752489
 51
323.774905
  0
ARC
  8
APS_GEOMETRY
 10
0.50634
 20
1.913782
 40
1.159644
 50
294.370708
 51
309.752671
  0
ARC
  8
APS_GEOMETRY
 10
0.603498
 20
1.699314
 40
0.924195
 50
276.436773
 51
294.370545
  0
LINE
  8
APS_GEOMETRY
 10
0.707107
 11
0.707107
 20
0.780945
 21
0.464039
  0
LINE
  8
CONSTRUCTION
 10
0.152615
 11
0.10065
 20
-1.038482
 21
-1.166909
  0
LINE
  8
CONSTRUCTION
 10
0.10065
 11
0.20458
 20
-1.166909
 21
-1.166909
  0
LINE
  8
CONSTRUCTION
 10
0.20458
 11
0.152615
 20
-1.166909
 21
-1.038482
  0
LINE
  8
CONSTRUCTION
 10
0.152615
 11
0.559547
 20
-1.038482
 21
-1.03848
  0
LINE
  8
CONSTRUCTION
 10
0.559547
 11
0.507582
 20
-1.03848
 21
-1.166908
  0
LINE
  8
CONSTRUCTION
 10
0.507582
 11
0.611512
 20
-1.166908
 21
-1.166908
  0
LINE
  8
CONSTRUCTION
 10
0.611512
 11
0.559547
 20
-1.166908
 21
-1.03848
  0
LINE
  8
CONSTRUCTION
 10
0.559547
 11
0.966478
 20
-1.03848
 21
-1.03848
  0
LINE
  8
CONSTRUCTION
 10
0.966478
 11
0.914513
 20
-1.03848
 21
-1.166908
  0
LINE
  8
CONSTRUCTION
 10
0.914513
 11
1.018442
 20
-1.166908
 21
-1.166908
  0
LINE
  8
CONSTRUCTION
 10
1.018442
 11
0.966478
 20
-1.166908
 21
-1.03848
  0
LINE
  8
CONSTRUCTION
 10
0.966478
 11
1.373408
 20
-1.03848
 21
-1.03848
  0
LINE
  8
CONSTRUCTION
 10
1.373408
 11
1.321443
 20
-1.03848
 21
-1.166908
  0
LINE
  8
CONSTRUCTION
 10
1.321443
 11
1.425373
 20
-1.166908
 21
-1.166908
  0
LINE
  8
CONSTRUCTION
 10
1.425373
 11
1.373408
 20
-1.166908
 21
-1.03848
  0
LINE
  8
CONSTRUCTION
 10
1.373408
 11
1.780281
 20
-1.03848
 21
-1.038482
  0
LINE
  8
CONSTRUCTION
 10
1.780281
 11
1.728316
 20
-1.038482
 21
-1.166909
  0
LINE
  8
CONSTRUCTION
 10
1.728316
 11
1.832246
 20
-1.166909
 21
-1.166909
  0
LINE
  8
CONSTRUCTION
 10
1.832246
 11
1.780281
 20
-1.166909
 21
-1.038482
  0
LINE
  8
CONSTRUCTION
 10
0.0
 11
4.0
 20
-1.561751
 21
-1.561751
  0
TEXT
  8
TEXT
 10
0.10065
 20
-1.405784
 30
0.0
 40
0.224
 50
0.0
  1
DOVETAIL DESIGNS
  0
TEXT
  8
TEXT
 10
2.276036
 20
-1.551751
 30
0.0
 40
0.099
 50
0.0
  1
& MILLWORK INC.
  0
TEXT
  8
TEXT
 10
1.092458
 20
-1.640461
 30
0.0
 40
0.07
 50
0.0
  1
Established 1979
  0
TEXT
  8
TEXT
 10
0.1
 20
-1.8
 30
0.0
 40
0.1
 50
0.0
  1
Phone: (406) 248-5010    Website: www.dovetailmt.com
  0
TEXT
  8
TEXT
 10
0.0
 20
-0.65
 30
0.0
 40
0.1
 50
0.0
  1
(3/4"x4-3/8")
  0
TEXT
  8
TEXT
 10
0.0
 20
-0.5
 30
0.0
 40
0.1
 50
0.0
  1
2-7/8"x3-1/4"
  0
TEXT
  8
TEXT
 10
0.0
 20
-0.25
 30
0.0
 40
0.15625
 50
0.0
  1
CN1
  0
ENDSEC
  0
EOF
