  0
SECTION
  2
ENTITIES
  0
ARC
  8
MOULD-NEW
 10
0.66067
 20
0.460938
 40
0.023438
 50
189.928144
 51
269.999931
  0
LINE
  8
MOULD-NEW
 10
0.66067
 11
0.726563
 20
0.4375
 21
0.4375
  0
ARC
  8
MOULD-NEW
 10
0.726563
 20
0.414063
 40
0.023437
 50
359.999957
 51
90.000043
  0
LINE
  8
MOULD-NEW
 10
0.75
 11
0.75
 20
0.414063
 21
0.0
  0
LINE
  8
MOULD-NEW
 10
0.75
 11
0.637326
 20
0.0
 21
0.0
  0
ARC
  8
MOULD-NEW
 10
0.437501
 20
-0.458334
 40
0.5
 50
66.443651
 51
113.556495
  0
LINE
  8
MOULD-NEW
 10
0.237674
 11
0.0
 20
-0.000001
 21
0.0
  0
LINE
  8
MOULD-NEW
 10
0.0
 11
0.0
 20
0.0
 21
0.19429
  0
ARC
  8
MOULD-NEW
 10
0.046874
 20
0.19429
 40
0.046874
 50
127.191006
 51
180.0
  0
ARC
  8
MOULD-NEW
 10
-0.144387
 20
0.446345
 40
0.269532
 50
307.191506
 51
349.8572
  0
ARC
  8
MOULD-NEW
 10
0.167075
 20
0.390625
 40
0.046875
 50
90.000151
 51
169.856565
  0
LINE
  8
MOULD-NEW
 10
0.167075
 11
0.21433
 20
0.4375
 21
0.4375
  0
ARC
  8
MOULD-NEW
 10
0.21433
 20
0.460938
 40
0.023438
 50
270.000069
 51
350.071856
  0
ARC
  8
MOULD-NEW
 10
0.4375
 20
0.421875
 40
0.203125
 50
9.928412
 51
170.071588
  0
LINE
  8
CONSTRUCTION
 10
0.152615
 11
0.10065
 20
-1.038482
 21
-1.166909
  0
LINE
  8
CONSTRUCTION
 10
0.10065
 11
0.20458
 20
-1.166909
 21
-1.166909
  0
LINE
  8
CONSTRUCTION
 10
0.20458
 11
0.152615
 20
-1.166909
 21
-1.038482
  0
LINE
  8
CONSTRUCTION
 10
0.152615
 11
0.559547
 20
-1.038482
 21
-1.03848
  0
LINE
  8
CONSTRUCTION
 10
0.559547
 11
0.507582
 20
-1.03848
 21
-1.166908
  0
LINE
  8
CONSTRUCTION
 10
0.507582
 11
0.611512
 20
-1.166908
 21
-1.166908
  0
LINE
  8
CONSTRUCTION
 10
0.611512
 11
0.559547
 20
-1.166908
 21
-1.03848
  0
LINE
  8
CONSTRUCTION
 10
0.559547
 11
0.966478
 20
-1.03848
 21
-1.03848
  0
LINE
  8
CONSTRUCTION
 10
0.966478
 11
0.914513
 20
-1.03848
 21
-1.166908
  0
LINE
  8
CONSTRUCTION
 10
0.914513
 11
1.018442
 20
-1.166908
 21
-1.166908
  0
LINE
  8
CONSTRUCTION
 10
1.018442
 11
0.966478
 20
-1.166908
 21
-1.03848
  0
LINE
  8
CONSTRUCTION
 10
0.966478
 11
1.373408
 20
-1.03848
 21
-1.03848
  0
LINE
  8
CONSTRUCTION
 10
1.373408
 11
1.321443
 20
-1.03848
 21
-1.166908
  0
LINE
  8
CONSTRUCTION
 10
1.321443
 11
1.425373
 20
-1.166908
 21
-1.166908
  0
LINE
  8
CONSTRUCTION
 10
1.425373
 11
1.373408
 20
-1.166908
 21
-1.03848
  0
LINE
  8
CONSTRUCTION
 10
1.373408
 11
1.780281
 20
-1.03848
 21
-1.038482
  0
LINE
  8
CONSTRUCTION
 10
1.780281
 11
1.728316
 20
-1.038482
 21
-1.166909
  0
LINE
  8
CONSTRUCTION
 10
1.728316
 11
1.832246
 20
-1.166909
 21
-1.166909
  0
LINE
  8
CONSTRUCTION
 10
1.832246
 11
1.780281
 20
-1.166909
 21
-1.038482
  0
LINE
  8
CONSTRUCTION
 10
0.0
 11
4.0
 20
-1.561751
 21
-1.561751
  0
TEXT
  8
TEXT
 10
0.10065
 20
-1.405784
 30
0.0
 40
0.224
 50
0.0
  1
DOVETAIL DESIGNS
  0
TEXT
  8
TEXT
 10
2.276036
 20
-1.551751
 30
0.0
 40
0.099
 50
0.0
  1
& MILLWORK INC.
  0
TEXT
  8
TEXT
 10
1.092458
 20
-1.640461
 30
0.0
 40
0.07
 50
0.0
  1
Established 1979
  0
TEXT
  8
TEXT
 10
0.1
 20
-1.8
 30
0.0
 40
0.1
 50
0.0
  1
Phone: (406) 248-5010    Website: www.dovetailmt.com
  0
TEXT
  8
TEXT
 10
0.0
 20
-0.25
 30
0.0
 40
0.15625
 50
0.0
  1
BO8
  0
TEXT
  8
TEXT
 10
0.0
 20
-0.5
 30
0.0
 40
0.1
 50
0.0
  1
5/8"x3/4"
  0
ENDSEC
  0
EOF
