  0
SECTION
  2
ENTITIES
  0
ARC
  8
APS_GEOMETRY
 10
0.28125
 20
0.3125
 40
0.1875
 50
0.0
 51
180.0
  0
LINE
  8
APS_GEOMETRY
 10
0.09375
 11
0.0
 20
0.3125
 21
0.3125
  0
LINE
  8
APS_GEOMETRY
 10
0.0
 11
0.0
 20
0.3125
 21
0.0
  0
LINE
  8
APS_GEOMETRY
 10
0.0
 11
1.09375
 20
0.0
 21
0.0
  0
LINE
  8
APS_GEOMETRY
 10
1.09375
 11
1.09375
 20
0.0
 21
0.09375
  0
LINE
  8
APS_GEOMETRY
 10
1.09375
 11
1.05413
 20
0.09375
 21
0.095348
  0
LINE
  8
APS_GEOMETRY
 10
1.05413
 11
1.014654
 20
0.095348
 21
0.097195
  0
LINE
  8
APS_GEOMETRY
 10
1.014654
 11
0.975467
 20
0.097195
 21
0.09954
  0
LINE
  8
APS_GEOMETRY
 10
0.975467
 11
0.936714
 20
0.09954
 21
0.102634
  0
LINE
  8
APS_GEOMETRY
 10
0.936714
 11
0.898539
 20
0.102634
 21
0.106725
  0
LINE
  8
APS_GEOMETRY
 10
0.898539
 11
0.861086
 20
0.106725
 21
0.112062
  0
LINE
  8
APS_GEOMETRY
 10
0.861086
 11
0.8245
 20
0.112062
 21
0.118896
  0
LINE
  8
APS_GEOMETRY
 10
0.8245
 11
0.788926
 20
0.118896
 21
0.127474
  0
LINE
  8
APS_GEOMETRY
 10
0.788926
 11
0.754508
 20
0.127474
 21
0.138047
  0
LINE
  8
APS_GEOMETRY
 10
0.754508
 11
0.72139
 20
0.138047
 21
0.150863
  0
LINE
  8
APS_GEOMETRY
 10
0.72139
 11
0.689717
 20
0.150863
 21
0.166173
  0
LINE
  8
APS_GEOMETRY
 10
0.689717
 11
0.659634
 20
0.166173
 21
0.184225
  0
LINE
  8
APS_GEOMETRY
 10
0.659634
 11
0.633911
 20
0.184225
 21
0.203125
  0
LINE
  8
APS_GEOMETRY
 10
0.633911
 11
0.604682
 20
0.203125
 21
0.229327
  0
LINE
  8
APS_GEOMETRY
 10
0.604682
 11
0.579446
 20
0.229327
 21
0.255742
  0
LINE
  8
APS_GEOMETRY
 10
0.579446
 11
0.55512
 20
0.255742
 21
0.283728
  0
LINE
  8
APS_GEOMETRY
 10
0.55512
 11
0.53125
 20
0.283728
 21
0.3125
  0
LINE
  8
APS_GEOMETRY
 10
0.53125
 11
0.46875
 20
0.3125
 21
0.3125
  0
LINE
  8
CONSTRUCTION
 10
0.152615
 11
0.10065
 20
-1.038482
 21
-1.166909
  0
LINE
  8
CONSTRUCTION
 10
0.10065
 11
0.20458
 20
-1.166909
 21
-1.166909
  0
LINE
  8
CONSTRUCTION
 10
0.20458
 11
0.152615
 20
-1.166909
 21
-1.038482
  0
LINE
  8
CONSTRUCTION
 10
0.152615
 11
0.559547
 20
-1.038482
 21
-1.03848
  0
LINE
  8
CONSTRUCTION
 10
0.559547
 11
0.507582
 20
-1.03848
 21
-1.166908
  0
LINE
  8
CONSTRUCTION
 10
0.507582
 11
0.611512
 20
-1.166908
 21
-1.166908
  0
LINE
  8
CONSTRUCTION
 10
0.611512
 11
0.559547
 20
-1.166908
 21
-1.03848
  0
LINE
  8
CONSTRUCTION
 10
0.559547
 11
0.966478
 20
-1.03848
 21
-1.03848
  0
LINE
  8
CONSTRUCTION
 10
0.966478
 11
0.914513
 20
-1.03848
 21
-1.166908
  0
LINE
  8
CONSTRUCTION
 10
0.914513
 11
1.018442
 20
-1.166908
 21
-1.166908
  0
LINE
  8
CONSTRUCTION
 10
1.018442
 11
0.966478
 20
-1.166908
 21
-1.03848
  0
LINE
  8
CONSTRUCTION
 10
0.966478
 11
1.373408
 20
-1.03848
 21
-1.03848
  0
LINE
  8
CONSTRUCTION
 10
1.373408
 11
1.321443
 20
-1.03848
 21
-1.166908
  0
LINE
  8
CONSTRUCTION
 10
1.321443
 11
1.425373
 20
-1.166908
 21
-1.166908
  0
LINE
  8
CONSTRUCTION
 10
1.425373
 11
1.373408
 20
-1.166908
 21
-1.03848
  0
LINE
  8
CONSTRUCTION
 10
1.373408
 11
1.780281
 20
-1.03848
 21
-1.038482
  0
LINE
  8
CONSTRUCTION
 10
1.780281
 11
1.728316
 20
-1.038482
 21
-1.166909
  0
LINE
  8
CONSTRUCTION
 10
1.728316
 11
1.832246
 20
-1.166909
 21
-1.166909
  0
LINE
  8
CONSTRUCTION
 10
1.832246
 11
1.780281
 20
-1.166909
 21
-1.038482
  0
LINE
  8
CONSTRUCTION
 10
0.0
 11
4.0
 20
-1.561751
 21
-1.561751
  0
TEXT
  8
TEXT
 10
0.10065
 20
-1.405784
 30
0.0
 40
0.224
 50
0.0
  1
DOVETAIL DESIGNS
  0
TEXT
  8
TEXT
 10
2.276036
 20
-1.551751
 30
0.0
 40
0.099
 50
0.0
  1
& MILLWORK INC.
  0
TEXT
  8
TEXT
 10
1.092458
 20
-1.640461
 30
0.0
 40
0.07
 50
0.0
  1
Established 1979
  0
TEXT
  8
TEXT
 10
0.1
 20
-1.8
 30
0.0
 40
0.1
 50
0.0
  1
Phone: (406) 248-5010    Website: www.dovetailmt.com
  0
TEXT
  8
TEXT
 10
0.0
 20
-0.5
 30
0.0
 40
0.1
 50
0.0
  1
1/2"x1-3/32"
  0
TEXT
  8
TEXT
 10
0.0
 20
-0.25
 30
0.0
 40
0.15625
 50
0.0
  1
BO50
  0
ENDSEC
  0
EOF
