  0
SECTION
  2
ENTITIES
  0
ARC
  8
APS_GEOMETRY
 10
1.616268
 20
0.353496
 40
0.15525
 50
0.0
 51
89.428364
  0
LINE
  8
APS_GEOMETRY
 10
1.617817
 11
1.607984
 20
0.508738
 21
0.5645
  0
LINE
  8
APS_GEOMETRY
 10
1.607984
 11
0.674306
 20
0.5645
 21
0.5645
  0
LINE
  8
APS_GEOMETRY
 10
0.674306
 11
0.665605
 20
0.5645
 21
0.613848
  0
ARC
  8
APS_GEOMETRY
 10
0.622402
 20
0.973888
 40
0.362623
 50
219.018767
 51
276.84251
  0
ARC
  8
APS_GEOMETRY
 10
0.163827
 20
0.602294
 40
0.227609
 50
39.018527
 51
103.035959
  0
LINE
  8
APS_GEOMETRY
 10
0.112486
 11
0.1035
 20
0.824037
 21
0.875
  0
LINE
  8
APS_GEOMETRY
 10
0.1035
 11
0.0
 20
0.875
 21
0.875
  0
LINE
  8
APS_GEOMETRY
 10
0.0
 11
0.0
 20
0.875
 21
0.0
  0
LINE
  8
APS_GEOMETRY
 10
0.0
 11
1.625
 20
0.0
 21
0.0
  0
LINE
  8
APS_GEOMETRY
 10
1.625
 11
1.625018
 20
0.0
 21
0.249961
  0
LINE
  8
APS_GEOMETRY
 10
1.625018
 11
1.875018
 20
0.249961
 21
0.249961
  0
LINE
  8
APS_GEOMETRY
 10
1.875018
 11
1.875018
 20
0.249961
 21
0.353496
  0
LINE
  8
APS_GEOMETRY
 10
1.875018
 11
1.771518
 20
0.353496
 21
0.353496
  0
LINE
  8
CONSTRUCTION
 10
0.152615
 11
0.10065
 20
-1.038482
 21
-1.166909
  0
LINE
  8
CONSTRUCTION
 10
0.10065
 11
0.20458
 20
-1.166909
 21
-1.166909
  0
LINE
  8
CONSTRUCTION
 10
0.20458
 11
0.152615
 20
-1.166909
 21
-1.038482
  0
LINE
  8
CONSTRUCTION
 10
0.152615
 11
0.559547
 20
-1.038482
 21
-1.03848
  0
LINE
  8
CONSTRUCTION
 10
0.559547
 11
0.507582
 20
-1.03848
 21
-1.166908
  0
LINE
  8
CONSTRUCTION
 10
0.507582
 11
0.611512
 20
-1.166908
 21
-1.166908
  0
LINE
  8
CONSTRUCTION
 10
0.611512
 11
0.559547
 20
-1.166908
 21
-1.03848
  0
LINE
  8
CONSTRUCTION
 10
0.559547
 11
0.966478
 20
-1.03848
 21
-1.03848
  0
LINE
  8
CONSTRUCTION
 10
0.966478
 11
0.914513
 20
-1.03848
 21
-1.166908
  0
LINE
  8
CONSTRUCTION
 10
0.914513
 11
1.018442
 20
-1.166908
 21
-1.166908
  0
LINE
  8
CONSTRUCTION
 10
1.018442
 11
0.966478
 20
-1.166908
 21
-1.03848
  0
LINE
  8
CONSTRUCTION
 10
0.966478
 11
1.373408
 20
-1.03848
 21
-1.03848
  0
LINE
  8
CONSTRUCTION
 10
1.373408
 11
1.321443
 20
-1.03848
 21
-1.166908
  0
LINE
  8
CONSTRUCTION
 10
1.321443
 11
1.425373
 20
-1.166908
 21
-1.166908
  0
LINE
  8
CONSTRUCTION
 10
1.425373
 11
1.373408
 20
-1.166908
 21
-1.03848
  0
LINE
  8
CONSTRUCTION
 10
1.373408
 11
1.780281
 20
-1.03848
 21
-1.038482
  0
LINE
  8
CONSTRUCTION
 10
1.780281
 11
1.728316
 20
-1.038482
 21
-1.166909
  0
LINE
  8
CONSTRUCTION
 10
1.728316
 11
1.832246
 20
-1.166909
 21
-1.166909
  0
LINE
  8
CONSTRUCTION
 10
1.832246
 11
1.780281
 20
-1.166909
 21
-1.038482
  0
LINE
  8
CONSTRUCTION
 10
0.0
 11
4.0
 20
-1.561751
 21
-1.561751
  0
TEXT
  8
TEXT
 10
0.10065
 20
-1.405784
 30
0.0
 40
0.224
 50
0.0
  1
DOVETAIL DESIGNS
  0
TEXT
  8
TEXT
 10
2.276036
 20
-1.551751
 30
0.0
 40
0.099
 50
0.0
  1
& MILLWORK INC.
  0
TEXT
  8
TEXT
 10
1.092458
 20
-1.640461
 30
0.0
 40
0.07
 50
0.0
  1
Established 1979
  0
TEXT
  8
TEXT
 10
0.1
 20
-1.8
 30
0.0
 40
0.1
 50
0.0
  1
Phone: (406) 248-5010    Website: www.dovetailmt.com
  0
TEXT
  8
TEXT
 10
0.0
 20
-0.25
 30
0.0
 40
0.15625
 50
0.0
  1
BO43
  0
TEXT
  8
TEXT
 10
0.0
 20
-0.5
 30
0.0
 40
0.1
 50
0.0
  1
7/8"x1-7/8"
  0
ENDSEC
  0
EOF
