  0
SECTION
  2
ENTITIES
  0
ARC
  8
APS_GEOMETRY
 10
0.402178
 20
0.264849
 40
0.222492
 50
152.589801
 51
154.858857
  0
LINE
  8
APS_GEOMETRY
 10
0.200764
 11
0.0
 20
0.359375
 21
0.359375
  0
LINE
  8
APS_GEOMETRY
 10
0.0
 11
0.0
 20
0.359375
 21
0.0
  0
LINE
  8
APS_GEOMETRY
 10
0.0
 11
1.1875
 20
0.0
 21
0.0
  0
LINE
  8
APS_GEOMETRY
 10
1.1875
 11
1.1875
 20
0.0
 21
0.1875
  0
LINE
  8
APS_GEOMETRY
 10
1.1875
 11
1.15625
 20
0.1875
 21
0.1875
  0
ARC
  8
APS_GEOMETRY
 10
1.15625
 20
0.328125
 40
0.140625
 50
180.0
 51
270.0
  0
LINE
  8
APS_GEOMETRY
 10
1.015625
 11
0.826752
 20
0.328125
 21
0.328125
  0
ARC
  8
APS_GEOMETRY
 10
0.613448
 20
0.264847
 40
0.222492
 50
16.523318
 51
27.410766
  0
ARC
  8
APS_GEOMETRY
 10
0.571918
 20
0.242414
 40
0.269688
 50
27.579837
 51
51.492026
  0
ARC
  8
APS_GEOMETRY
 10
0.526603
 20
0.186433
 40
0.341709
 50
51.390653
 51
71.7913
  0
ARC
  8
APS_GEOMETRY
 10
0.508438
 20
0.135135
 40
0.396116
 50
71.613914
 51
90.090513
  0
ARC
  8
APS_GEOMETRY
 10
0.507185
 20
0.135135
 40
0.396116
 50
89.909271
 51
108.385782
  0
ARC
  8
APS_GEOMETRY
 10
0.489024
 20
0.186434
 40
0.341709
 50
108.209199
 51
128.609839
  0
ARC
  8
APS_GEOMETRY
 10
0.443706
 20
0.242413
 40
0.269688
 50
128.507665
 51
152.419889
  0
LINE
  8
CONSTRUCTION
 10
0.152615
 11
0.10065
 20
-1.038482
 21
-1.166909
  0
LINE
  8
CONSTRUCTION
 10
0.10065
 11
0.20458
 20
-1.166909
 21
-1.166909
  0
LINE
  8
CONSTRUCTION
 10
0.20458
 11
0.152615
 20
-1.166909
 21
-1.038482
  0
LINE
  8
CONSTRUCTION
 10
0.152615
 11
0.559547
 20
-1.038482
 21
-1.03848
  0
LINE
  8
CONSTRUCTION
 10
0.559547
 11
0.507582
 20
-1.03848
 21
-1.166908
  0
LINE
  8
CONSTRUCTION
 10
0.507582
 11
0.611512
 20
-1.166908
 21
-1.166908
  0
LINE
  8
CONSTRUCTION
 10
0.611512
 11
0.559547
 20
-1.166908
 21
-1.03848
  0
LINE
  8
CONSTRUCTION
 10
0.559547
 11
0.966478
 20
-1.03848
 21
-1.03848
  0
LINE
  8
CONSTRUCTION
 10
0.966478
 11
0.914513
 20
-1.03848
 21
-1.166908
  0
LINE
  8
CONSTRUCTION
 10
0.914513
 11
1.018442
 20
-1.166908
 21
-1.166908
  0
LINE
  8
CONSTRUCTION
 10
1.018442
 11
0.966478
 20
-1.166908
 21
-1.03848
  0
LINE
  8
CONSTRUCTION
 10
0.966478
 11
1.373408
 20
-1.03848
 21
-1.03848
  0
LINE
  8
CONSTRUCTION
 10
1.373408
 11
1.321443
 20
-1.03848
 21
-1.166908
  0
LINE
  8
CONSTRUCTION
 10
1.321443
 11
1.425373
 20
-1.166908
 21
-1.166908
  0
LINE
  8
CONSTRUCTION
 10
1.425373
 11
1.373408
 20
-1.166908
 21
-1.03848
  0
LINE
  8
CONSTRUCTION
 10
1.373408
 11
1.780281
 20
-1.03848
 21
-1.038482
  0
LINE
  8
CONSTRUCTION
 10
1.780281
 11
1.728316
 20
-1.038482
 21
-1.166909
  0
LINE
  8
CONSTRUCTION
 10
1.728316
 11
1.832246
 20
-1.166909
 21
-1.166909
  0
LINE
  8
CONSTRUCTION
 10
1.832246
 11
1.780281
 20
-1.166909
 21
-1.038482
  0
LINE
  8
CONSTRUCTION
 10
0.0
 11
4.0
 20
-1.561751
 21
-1.561751
  0
TEXT
  8
TEXT
 10
0.10065
 20
-1.405784
 30
0.0
 40
0.224
 50
0.0
  1
DOVETAIL DESIGNS
  0
TEXT
  8
TEXT
 10
2.276036
 20
-1.551751
 30
0.0
 40
0.099
 50
0.0
  1
& MILLWORK INC.
  0
TEXT
  8
TEXT
 10
1.092458
 20
-1.640461
 30
0.0
 40
0.07
 50
0.0
  1
Established 1979
  0
TEXT
  8
TEXT
 10
0.1
 20
-1.8
 30
0.0
 40
0.1
 50
0.0
  1
Phone: (406) 248-5010    Website: www.dovetailmt.com
  0
TEXT
  8
TEXT
 10
0.0
 20
-0.5
 30
0.0
 40
0.1
 50
0.0
  1
17/32"x1-23/64"
  0
TEXT
  8
TEXT
 10
0.0
 20
-0.25
 30
0.0
 40
0.15625
 50
0.0
  1
BO36
  0
ENDSEC
  0
EOF
