  0
SECTION
  2
ENTITIES
  0
ARC
  8
APS_GEOMETRY
 10
0.804615
 20
0.209238
 40
0.5
 50
10.094643
 51
51.300833
  0
ARC
  8
APS_GEOMETRY
 10
1.0
 20
0.453125
 40
0.1875
 50
51.300962
 51
125.000044
  0
LINE
  8
APS_GEOMETRY
 10
0.892454
 11
0.764282
 20
0.606716
 21
0.516968
  0
LINE
  8
APS_GEOMETRY
 10
0.764282
 11
0.734375
 20
0.516968
 21
0.546875
  0
LINE
  8
APS_GEOMETRY
 10
0.734375
 11
0.65625
 20
0.546875
 21
0.476998
  0
ARC
  8
APS_GEOMETRY
 10
0.59375
 20
0.546875
 40
0.09375
 50
195.72245
 51
311.810338
  0
LINE
  8
APS_GEOMETRY
 10
0.503508
 11
0.476563
 20
0.521471
 21
0.617188
  0
LINE
  8
APS_GEOMETRY
 10
0.476563
 11
0.398438
 20
0.617188
 21
0.617188
  0
LINE
  8
APS_GEOMETRY
 10
0.398438
 11
0.398438
 20
0.617188
 21
0.703125
  0
LINE
  8
APS_GEOMETRY
 10
0.398438
 11
0.0
 20
0.703125
 21
0.703125
  0
LINE
  8
APS_GEOMETRY
 10
0.0
 11
0.0
 20
0.703125
 21
0.0
  0
LINE
  8
APS_GEOMETRY
 10
0.0
 11
1.03125
 20
0.0
 21
0.0
  0
LINE
  8
APS_GEOMETRY
 10
1.03125
 11
1.03125
 20
0.0
 21
0.296875
  0
LINE
  8
APS_GEOMETRY
 10
1.03125
 11
1.296875
 20
0.296875
 21
0.296875
  0
LINE
  8
CONSTRUCTION
 10
0.152615
 11
0.10065
 20
-1.038482
 21
-1.166909
  0
LINE
  8
CONSTRUCTION
 10
0.10065
 11
0.20458
 20
-1.166909
 21
-1.166909
  0
LINE
  8
CONSTRUCTION
 10
0.20458
 11
0.152615
 20
-1.166909
 21
-1.038482
  0
LINE
  8
CONSTRUCTION
 10
0.152615
 11
0.559547
 20
-1.038482
 21
-1.03848
  0
LINE
  8
CONSTRUCTION
 10
0.559547
 11
0.507582
 20
-1.03848
 21
-1.166908
  0
LINE
  8
CONSTRUCTION
 10
0.507582
 11
0.611512
 20
-1.166908
 21
-1.166908
  0
LINE
  8
CONSTRUCTION
 10
0.611512
 11
0.559547
 20
-1.166908
 21
-1.03848
  0
LINE
  8
CONSTRUCTION
 10
0.559547
 11
0.966478
 20
-1.03848
 21
-1.03848
  0
LINE
  8
CONSTRUCTION
 10
0.966478
 11
0.914513
 20
-1.03848
 21
-1.166908
  0
LINE
  8
CONSTRUCTION
 10
0.914513
 11
1.018442
 20
-1.166908
 21
-1.166908
  0
LINE
  8
CONSTRUCTION
 10
1.018442
 11
0.966478
 20
-1.166908
 21
-1.03848
  0
LINE
  8
CONSTRUCTION
 10
0.966478
 11
1.373408
 20
-1.03848
 21
-1.03848
  0
LINE
  8
CONSTRUCTION
 10
1.373408
 11
1.321443
 20
-1.03848
 21
-1.166908
  0
LINE
  8
CONSTRUCTION
 10
1.321443
 11
1.425373
 20
-1.166908
 21
-1.166908
  0
LINE
  8
CONSTRUCTION
 10
1.425373
 11
1.373408
 20
-1.166908
 21
-1.03848
  0
LINE
  8
CONSTRUCTION
 10
1.373408
 11
1.780281
 20
-1.03848
 21
-1.038482
  0
LINE
  8
CONSTRUCTION
 10
1.780281
 11
1.728316
 20
-1.038482
 21
-1.166909
  0
LINE
  8
CONSTRUCTION
 10
1.728316
 11
1.832246
 20
-1.166909
 21
-1.166909
  0
LINE
  8
CONSTRUCTION
 10
1.832246
 11
1.780281
 20
-1.166909
 21
-1.038482
  0
LINE
  8
CONSTRUCTION
 10
0.0
 11
4.0
 20
-1.561751
 21
-1.561751
  0
TEXT
  8
TEXT
 10
0.10065
 20
-1.405784
 30
0.0
 40
0.224
 50
0.0
  1
DOVETAIL DESIGNS
  0
TEXT
  8
TEXT
 10
2.276036
 20
-1.551751
 30
0.0
 40
0.099
 50
0.0
  1
& MILLWORK INC.
  0
TEXT
  8
TEXT
 10
1.092458
 20
-1.640461
 30
0.0
 40
0.07
 50
0.0
  1
Established 1979
  0
TEXT
  8
TEXT
 10
0.1
 20
-1.8
 30
0.0
 40
0.1
 50
0.0
  1
Phone: (406) 248-5010    Website: www.dovetailmt.com
  0
TEXT
  8
TEXT
 10
0.0
 20
-0.25
 30
0.0
 40
0.15625
 50
0.0
  1
BO35
  0
TEXT
  8
TEXT
 10
0.0
 20
-0.5
 30
0.0
 40
0.1
 50
0.0
  1
45/64"x3/4"
  0
ENDSEC
  0
EOF
