  0
SECTION
  2
ENTITIES
  0
LINE
  8
A-SECT-1
 10
0.4375
 11
0.0
 20
0.480645
 21
0.480645
  0
LINE
  8
A-SECT-1
 10
0.0
 11
0.0
 20
0.480645
 21
0.0
  0
LINE
  8
A-SECT-1
 10
0.0
 11
1.0
 20
0.0
 21
0.0
  0
LINE
  8
A-SECT-1
 10
1.0
 11
1.0
 20
0.0
 21
0.605645
  0
LINE
  8
A-SECT-1
 10
1.0
 11
0.998417
 20
0.605645
 21
0.623496
  0
LINE
  8
A-SECT-1
 10
0.998417
 11
0.996934
 20
0.623496
 21
0.630452
  0
LINE
  8
A-SECT-1
 10
0.996934
 11
0.992301
 20
0.630452
 21
0.644795
  0
LINE
  8
A-SECT-1
 10
0.992301
 11
0.986344
 20
0.644795
 21
0.657504
  0
LINE
  8
A-SECT-1
 10
0.986344
 11
0.979552
 20
0.657504
 21
0.66871
  0
LINE
  8
A-SECT-1
 10
0.979552
 11
0.971636
 20
0.66871
 21
0.679377
  0
LINE
  8
A-SECT-1
 10
0.971636
 11
0.964032
 20
0.679377
 21
0.68808
  0
LINE
  8
A-SECT-1
 10
0.964032
 11
0.951342
 20
0.68808
 21
0.700364
  0
LINE
  8
A-SECT-1
 10
0.951342
 11
0.933957
 20
0.700364
 21
0.714112
  0
LINE
  8
A-SECT-1
 10
0.933957
 11
0.912065
 20
0.714112
 21
0.728014
  0
LINE
  8
A-SECT-1
 10
0.912065
 11
0.887504
 20
0.728014
 21
0.740423
  0
LINE
  8
A-SECT-1
 10
0.887504
 11
0.856161
 20
0.740423
 21
0.752643
  0
LINE
  8
A-SECT-1
 10
0.856161
 11
0.823612
 20
0.752643
 21
0.761972
  0
LINE
  8
A-SECT-1
 10
0.823612
 11
0.789679
 20
0.761972
 21
0.768674
  0
LINE
  8
A-SECT-1
 10
0.789679
 11
0.763983
 20
0.768674
 21
0.771927
  0
LINE
  8
A-SECT-1
 10
0.763983
 11
0.73991
 20
0.771927
 21
0.773642
  0
LINE
  8
A-SECT-1
 10
0.73991
 11
0.712353
 20
0.773642
 21
0.774076
  0
LINE
  8
A-SECT-1
 10
0.712353
 11
0.686993
 20
0.774076
 21
0.773042
  0
LINE
  8
A-SECT-1
 10
0.686993
 11
0.669942
 20
0.773042
 21
0.771564
  0
LINE
  8
A-SECT-1
 10
0.669942
 11
0.648462
 20
0.771564
 21
0.768774
  0
LINE
  8
A-SECT-1
 10
0.648462
 11
0.631866
 20
0.768774
 21
0.765879
  0
LINE
  8
A-SECT-1
 10
0.631866
 11
0.616293
 20
0.765879
 21
0.762543
  0
LINE
  8
A-SECT-1
 10
0.616293
 11
0.601324
 20
0.762543
 21
0.758733
  0
LINE
  8
A-SECT-1
 10
0.601324
 11
0.583764
 20
0.758733
 21
0.753447
  0
LINE
  8
A-SECT-1
 10
0.583764
 11
0.57248
 20
0.753447
 21
0.749543
  0
LINE
  8
A-SECT-1
 10
0.57248
 11
0.555924
 20
0.749543
 21
0.743015
  0
LINE
  8
A-SECT-1
 10
0.555924
 11
0.541774
 20
0.743015
 21
0.736584
  0
LINE
  8
A-SECT-1
 10
0.541774
 11
0.52825
 20
0.736584
 21
0.729588
  0
LINE
  8
A-SECT-1
 10
0.52825
 11
0.515702
 20
0.729588
 21
0.722221
  0
LINE
  8
A-SECT-1
 10
0.515702
 11
0.498312
 20
0.722221
 21
0.710275
  0
LINE
  8
A-SECT-1
 10
0.498312
 11
0.486873
 20
0.710275
 21
0.700991
  0
LINE
  8
A-SECT-1
 10
0.486873
 11
0.476174
 20
0.700991
 21
0.690905
  0
LINE
  8
A-SECT-1
 10
0.476174
 11
0.467817
 20
0.690905
 21
0.681733
  0
LINE
  8
A-SECT-1
 10
0.467817
 11
0.460195
 20
0.681733
 21
0.671948
  0
LINE
  8
A-SECT-1
 10
0.460195
 11
0.45589
 20
0.671948
 21
0.665566
  0
LINE
  8
A-SECT-1
 10
0.45589
 11
0.452855
 20
0.665566
 21
0.660551
  0
LINE
  8
A-SECT-1
 10
0.452855
 11
0.449498
 20
0.660551
 21
0.654329
  0
LINE
  8
A-SECT-1
 10
0.449498
 11
0.446783
 20
0.654329
 21
0.648572
  0
LINE
  8
A-SECT-1
 10
0.446783
 11
0.443878
 20
0.648572
 21
0.641321
  0
LINE
  8
A-SECT-1
 10
0.443878
 11
0.442116
 20
0.641321
 21
0.636042
  0
LINE
  8
A-SECT-1
 10
0.442116
 11
0.440567
 20
0.636042
 21
0.63046
  0
LINE
  8
A-SECT-1
 10
0.440567
 11
0.439247
 20
0.63046
 21
0.624396
  0
LINE
  8
A-SECT-1
 10
0.439247
 11
0.438418
 20
0.624396
 21
0.619249
  0
LINE
  8
A-SECT-1
 10
0.438418
 11
0.437818
 20
0.619249
 21
0.613658
  0
LINE
  8
A-SECT-1
 10
0.437818
 11
0.437595
 20
0.613658
 21
0.610019
  0
LINE
  8
A-SECT-1
 10
0.437595
 11
0.4375
 20
0.610019
 21
0.605645
  0
LINE
  8
A-SECT-1
 10
0.4375
 11
0.4375
 20
0.605645
 21
0.480645
  0
LINE
  8
CONSTRUCTION
 10
0.152615
 11
0.10065
 20
-1.038482
 21
-1.166909
  0
LINE
  8
CONSTRUCTION
 10
0.10065
 11
0.20458
 20
-1.166909
 21
-1.166909
  0
LINE
  8
CONSTRUCTION
 10
0.20458
 11
0.152615
 20
-1.166909
 21
-1.038482
  0
LINE
  8
CONSTRUCTION
 10
0.152615
 11
0.559547
 20
-1.038482
 21
-1.03848
  0
LINE
  8
CONSTRUCTION
 10
0.559547
 11
0.507582
 20
-1.03848
 21
-1.166908
  0
LINE
  8
CONSTRUCTION
 10
0.507582
 11
0.611512
 20
-1.166908
 21
-1.166908
  0
LINE
  8
CONSTRUCTION
 10
0.611512
 11
0.559547
 20
-1.166908
 21
-1.03848
  0
LINE
  8
CONSTRUCTION
 10
0.559547
 11
0.966478
 20
-1.03848
 21
-1.03848
  0
LINE
  8
CONSTRUCTION
 10
0.966478
 11
0.914513
 20
-1.03848
 21
-1.166908
  0
LINE
  8
CONSTRUCTION
 10
0.914513
 11
1.018442
 20
-1.166908
 21
-1.166908
  0
LINE
  8
CONSTRUCTION
 10
1.018442
 11
0.966478
 20
-1.166908
 21
-1.03848
  0
LINE
  8
CONSTRUCTION
 10
0.966478
 11
1.373408
 20
-1.03848
 21
-1.03848
  0
LINE
  8
CONSTRUCTION
 10
1.373408
 11
1.321443
 20
-1.03848
 21
-1.166908
  0
LINE
  8
CONSTRUCTION
 10
1.321443
 11
1.425373
 20
-1.166908
 21
-1.166908
  0
LINE
  8
CONSTRUCTION
 10
1.425373
 11
1.373408
 20
-1.166908
 21
-1.03848
  0
LINE
  8
CONSTRUCTION
 10
1.373408
 11
1.780281
 20
-1.03848
 21
-1.038482
  0
LINE
  8
CONSTRUCTION
 10
1.780281
 11
1.728316
 20
-1.038482
 21
-1.166909
  0
LINE
  8
CONSTRUCTION
 10
1.728316
 11
1.832246
 20
-1.166909
 21
-1.166909
  0
LINE
  8
CONSTRUCTION
 10
1.832246
 11
1.780281
 20
-1.166909
 21
-1.038482
  0
LINE
  8
CONSTRUCTION
 10
0.0
 11
4.0
 20
-1.561751
 21
-1.561751
  0
TEXT
  8
TEXT
 10
0.10065
 20
-1.405784
 30
0.0
 40
0.224
 50
0.0
  1
DOVETAIL DESIGNS
  0
TEXT
  8
TEXT
 10
2.276036
 20
-1.551751
 30
0.0
 40
0.099
 50
0.0
  1
& MILLWORK INC.
  0
TEXT
  8
TEXT
 10
1.092458
 20
-1.640461
 30
0.0
 40
0.07
 50
0.0
  1
Established 1979
  0
TEXT
  8
TEXT
 10
0.1
 20
-1.8
 30
0.0
 40
0.1
 50
0.0
  1
Phone: (406) 248-5010    Website: www.dovetailmt.com
  0
TEXT
  8
TEXT
 10
0.0
 20
-0.25
 30
0.0
 40
0.15625
 50
0.0
  1
BO30
  0
TEXT
  8
TEXT
 10
0.0
 20
-0.5
 30
0.0
 40
0.1
 50
0.0
  1
25/32"x1"
  0
ENDSEC
  0
EOF
