  0
SECTION
  2
ENTITIES
  0
ARC
  8
APS_GEOMETRY
 10
1.43782
 20
0.0625
 40
0.0625
 50
270.0
 51
11.141803
  0
ARC
  8
APS_GEOMETRY
 10
-0.182383
 20
-0.257403
 40
1.713983
 50
11.168184
 51
12.648661
  0
ARC
  8
APS_GEOMETRY
 10
1.144288
 20
0.040309
 40
0.354318
 50
12.651321
 51
17.410883
  0
ARC
  8
APS_GEOMETRY
 10
1.257647
 20
0.075875
 40
0.235511
 50
17.406835
 51
25.96364
  0
ARC
  8
APS_GEOMETRY
 10
1.299406
 20
0.096201
 40
0.189067
 50
25.965825
 51
35.470908
  0
ARC
  8
APS_GEOMETRY
 10
1.284493
 20
0.085575
 40
0.207379
 50
35.471081
 51
44.070157
  0
ARC
  8
APS_GEOMETRY
 10
1.213391
 20
0.016743
 40
0.30634
 50
44.070214
 51
50.838055
  0
ARC
  8
APS_GEOMETRY
 10
1.14574
 20
-0.066314
 40
0.413462
 50
50.837775
 51
55.528169
  0
ARC
  8
APS_GEOMETRY
 10
0.853631
 20
-0.491721
 40
0.929504
 50
55.526003
 51
58.357024
  0
ARC
  8
APS_GEOMETRY
 10
0.569062
 20
-0.953593
 40
1.472003
 50
58.358794
 51
59.712418
  0
ARC
  8
APS_GEOMETRY
 10
-6.137216
 20
-12.436126
 40
14.769474
 50
59.713205
 51
59.965626
  0
ARC
  8
APS_GEOMETRY
 10
4.777239
 20
6.441945
 40
7.036647
 50
239.429649
 51
239.964995
  0
ARC
  8
APS_GEOMETRY
 10
2.759692
 20
3.026399
 40
3.069728
 50
238.324695
 51
239.429386
  0
ARC
  8
APS_GEOMETRY
 10
2.467201
 20
2.552404
 40
2.512752
 50
236.642764
 51
238.325237
  0
ARC
  8
APS_GEOMETRY
 10
1.921431
 20
1.723369
 40
1.520197
 50
234.184221
 51
236.643066
  0
ARC
  8
APS_GEOMETRY
 10
1.696075
 20
1.411059
 40
1.13507
 50
230.520551
 51
234.183422
  0
ARC
  8
APS_GEOMETRY
 10
1.321453
 20
0.956278
 40
0.545861
 50
224.762058
 51
230.520784
  0
ARC
  8
APS_GEOMETRY
 10
1.169997
 20
0.80607
 40
0.33255
 50
214.925273
 51
224.761463
  0
ARC
  8
APS_GEOMETRY
 10
1.001117
 20
0.688149
 40
0.126575
 50
197.982001
 51
214.926286
  0
ARC
  8
APS_GEOMETRY
 10
0.993469
 20
0.685669
 40
0.118535
 50
182.842156
 51
197.982737
  0
ARC
  8
APS_GEOMETRY
 10
1.274274
 20
0.699606
 40
0.399686
 50
177.254591
 51
182.841626
  0
LINE
  8
APS_GEOMETRY
 10
0.875047
 11
0.0
 20
0.71875
 21
0.71875
  0
LINE
  8
APS_GEOMETRY
 10
0.0
 11
0.0
 20
0.71875
 21
0.0
  0
LINE
  8
APS_GEOMETRY
 10
0.0
 11
1.43782
 20
0.0
 21
0.0
  0
LINE
  8
CONSTRUCTION
 10
0.152615
 11
0.10065
 20
-1.038482
 21
-1.166909
  0
LINE
  8
CONSTRUCTION
 10
0.10065
 11
0.20458
 20
-1.166909
 21
-1.166909
  0
LINE
  8
CONSTRUCTION
 10
0.20458
 11
0.152615
 20
-1.166909
 21
-1.038482
  0
LINE
  8
CONSTRUCTION
 10
0.152615
 11
0.559547
 20
-1.038482
 21
-1.03848
  0
LINE
  8
CONSTRUCTION
 10
0.559547
 11
0.507582
 20
-1.03848
 21
-1.166908
  0
LINE
  8
CONSTRUCTION
 10
0.507582
 11
0.611512
 20
-1.166908
 21
-1.166908
  0
LINE
  8
CONSTRUCTION
 10
0.611512
 11
0.559547
 20
-1.166908
 21
-1.03848
  0
LINE
  8
CONSTRUCTION
 10
0.559547
 11
0.966478
 20
-1.03848
 21
-1.03848
  0
LINE
  8
CONSTRUCTION
 10
0.966478
 11
0.914513
 20
-1.03848
 21
-1.166908
  0
LINE
  8
CONSTRUCTION
 10
0.914513
 11
1.018442
 20
-1.166908
 21
-1.166908
  0
LINE
  8
CONSTRUCTION
 10
1.018442
 11
0.966478
 20
-1.166908
 21
-1.03848
  0
LINE
  8
CONSTRUCTION
 10
0.966478
 11
1.373408
 20
-1.03848
 21
-1.03848
  0
LINE
  8
CONSTRUCTION
 10
1.373408
 11
1.321443
 20
-1.03848
 21
-1.166908
  0
LINE
  8
CONSTRUCTION
 10
1.321443
 11
1.425373
 20
-1.166908
 21
-1.166908
  0
LINE
  8
CONSTRUCTION
 10
1.425373
 11
1.373408
 20
-1.166908
 21
-1.03848
  0
LINE
  8
CONSTRUCTION
 10
1.373408
 11
1.780281
 20
-1.03848
 21
-1.038482
  0
LINE
  8
CONSTRUCTION
 10
1.780281
 11
1.728316
 20
-1.038482
 21
-1.166909
  0
LINE
  8
CONSTRUCTION
 10
1.728316
 11
1.832246
 20
-1.166909
 21
-1.166909
  0
LINE
  8
CONSTRUCTION
 10
1.832246
 11
1.780281
 20
-1.166909
 21
-1.038482
  0
LINE
  8
CONSTRUCTION
 10
0.0
 11
4.0
 20
-1.561751
 21
-1.561751
  0
TEXT
  8
TEXT
 10
0.10065
 20
-1.405784
 30
0.0
 40
0.224
 50
0.0
  1
DOVETAIL DESIGNS
  0
TEXT
  8
TEXT
 10
2.276036
 20
-1.551751
 30
0.0
 40
0.099
 50
0.0
  1
& MILLWORK INC.
  0
TEXT
  8
TEXT
 10
1.092458
 20
-1.640461
 30
0.0
 40
0.07
 50
0.0
  1
Established 1979
  0
TEXT
  8
TEXT
 10
0.1
 20
-1.8
 30
0.0
 40
0.1
 50
0.0
  1
Phone: (406) 248-5010    Website: www.dovetailmt.com
  0
TEXT
  8
TEXT
 10
0.0
 20
-0.25
 30
0.0
 40
0.15625
 50
0.0
  1
BO28
  0
TEXT
  8
TEXT
 10
0.0
 20
-0.5
 30
0.0
 40
0.1
 50
0.0
  1
23/32"x1-1/2"
  0
ENDSEC
  0
EOF
