  0
SECTION
  2
ENTITIES
  0
ARC
  8
APS_GEOMETRY
 10
0.73
 20
0.175
 40
0.13
 50
285.642479
 51
344.35775
  0
ARC
  8
APS_GEOMETRY
 10
0.608951
 20
0.175001
 40
0.248717
 50
351.898004
 51
8.101445
  0
ARC
  8
APS_GEOMETRY
 10
0.712357
 20
0.170061
 40
0.148322
 50
15.64195
 51
24.915826
  0
ARC
  8
APS_GEOMETRY
 10
0.735168
 20
0.180655
 40
0.12317
 50
24.91652
 51
36.01374
  0
ARC
  8
APS_GEOMETRY
 10
0.740389
 20
0.18445
 40
0.116716
 50
36.013848
 51
48.524309
  0
ARC
  8
APS_GEOMETRY
 10
0.734384
 20
0.177662
 40
0.125779
 50
48.522678
 51
61.442503
  0
ARC
  8
APS_GEOMETRY
 10
0.728386
 20
0.166618
 40
0.138347
 50
61.447204
 51
67.671053
  0
ARC
  8
APS_GEOMETRY
 10
0.718629
 20
0.142907
 40
0.163987
 50
67.665032
 51
73.555101
  0
LINE
  8
APS_GEOMETRY
 10
0.765052
 11
0.73
 20
0.300186
 21
0.31
  0
LINE
  8
APS_GEOMETRY
 10
0.73
 11
0.693721
 20
0.31
 21
0.320762
  0
ARC
  8
APS_GEOMETRY
 10
0.758631
 20
0.578188
 40
0.265483
 50
244.90506
 51
255.847867
  0
ARC
  8
APS_GEOMETRY
 10
0.759143
 20
0.579284
 40
0.266693
 50
233.637119
 51
244.905203
  0
ARC
  8
APS_GEOMETRY
 10
0.751106
 20
0.568373
 40
0.253141
 50
221.362736
 51
233.637912
  0
ARC
  8
APS_GEOMETRY
 10
0.733939
 20
0.553251
 40
0.230264
 50
207.796197
 51
221.361427
  0
ARC
  8
APS_GEOMETRY
 10
0.730657
 20
0.551525
 40
0.226556
 50
200.610673
 51
207.797118
  0
ARC
  8
APS_GEOMETRY
 10
0.734879
 20
0.553112
 40
0.231066
 50
193.288719
 51
200.610577
  0
LINE
  8
APS_GEOMETRY
 10
0.51
 11
0.0
 20
0.5
 21
0.5
  0
LINE
  8
APS_GEOMETRY
 10
0.0
 11
0.0
 20
0.5
 21
0.0
  0
LINE
  8
APS_GEOMETRY
 10
0.0
 11
0.73
 20
0.0
 21
0.0
  0
LINE
  8
APS_GEOMETRY
 10
0.73
 11
0.73
 20
0.0
 21
0.04
  0
LINE
  8
APS_GEOMETRY
 10
0.73
 11
0.765052
 20
0.04
 21
0.049815
  0
LINE
  8
CONSTRUCTION
 10
0.152615
 11
0.10065
 20
-1.038482
 21
-1.166909
  0
LINE
  8
CONSTRUCTION
 10
0.10065
 11
0.20458
 20
-1.166909
 21
-1.166909
  0
LINE
  8
CONSTRUCTION
 10
0.20458
 11
0.152615
 20
-1.166909
 21
-1.038482
  0
LINE
  8
CONSTRUCTION
 10
0.152615
 11
0.559547
 20
-1.038482
 21
-1.03848
  0
LINE
  8
CONSTRUCTION
 10
0.559547
 11
0.507582
 20
-1.03848
 21
-1.166908
  0
LINE
  8
CONSTRUCTION
 10
0.507582
 11
0.611512
 20
-1.166908
 21
-1.166908
  0
LINE
  8
CONSTRUCTION
 10
0.611512
 11
0.559547
 20
-1.166908
 21
-1.03848
  0
LINE
  8
CONSTRUCTION
 10
0.559547
 11
0.966478
 20
-1.03848
 21
-1.03848
  0
LINE
  8
CONSTRUCTION
 10
0.966478
 11
0.914513
 20
-1.03848
 21
-1.166908
  0
LINE
  8
CONSTRUCTION
 10
0.914513
 11
1.018442
 20
-1.166908
 21
-1.166908
  0
LINE
  8
CONSTRUCTION
 10
1.018442
 11
0.966478
 20
-1.166908
 21
-1.03848
  0
LINE
  8
CONSTRUCTION
 10
0.966478
 11
1.373408
 20
-1.03848
 21
-1.03848
  0
LINE
  8
CONSTRUCTION
 10
1.373408
 11
1.321443
 20
-1.03848
 21
-1.166908
  0
LINE
  8
CONSTRUCTION
 10
1.321443
 11
1.425373
 20
-1.166908
 21
-1.166908
  0
LINE
  8
CONSTRUCTION
 10
1.425373
 11
1.373408
 20
-1.166908
 21
-1.03848
  0
LINE
  8
CONSTRUCTION
 10
1.373408
 11
1.780281
 20
-1.03848
 21
-1.038482
  0
LINE
  8
CONSTRUCTION
 10
1.780281
 11
1.728316
 20
-1.038482
 21
-1.166909
  0
LINE
  8
CONSTRUCTION
 10
1.728316
 11
1.832246
 20
-1.166909
 21
-1.166909
  0
LINE
  8
CONSTRUCTION
 10
1.832246
 11
1.780281
 20
-1.166909
 21
-1.038482
  0
LINE
  8
CONSTRUCTION
 10
0.0
 11
4.0
 20
-1.561751
 21
-1.561751
  0
TEXT
  8
TEXT
 10
0.10065
 20
-1.405784
 30
0.0
 40
0.224
 50
0.0
  1
DOVETAIL DESIGNS
  0
TEXT
  8
TEXT
 10
2.276036
 20
-1.551751
 30
0.0
 40
0.099
 50
0.0
  1
& MILLWORK INC.
  0
TEXT
  8
TEXT
 10
1.092458
 20
-1.640461
 30
0.0
 40
0.07
 50
0.0
  1
Established 1979
  0
TEXT
  8
TEXT
 10
0.1
 20
-1.8
 30
0.0
 40
0.1
 50
0.0
  1
Phone: (406) 248-5010    Website: www.dovetailmt.com
  0
TEXT
  8
TEXT
 10
0.0
 20
-0.25
 30
0.0
 40
0.15625
 50
0.0
  1
BO18
  0
TEXT
  8
TEXT
 10
0.0
 20
-0.5
 30
0.0
 40
0.1
 50
0.0
  1
1/2"x7/8"
  0
ENDSEC
  0
EOF
