  0
SECTION
  2
ENTITIES
  0
ARC
  8
APS_GEOMETRY
 10
3.000313
 20
0.595903
 40
0.319588
 50
245.817849
 51
269.943917
  0
LINE
  8
APS_GEOMETRY
 10
3.0
 11
3.0
 20
0.276315
 21
0.0
  0
LINE
  8
APS_GEOMETRY
 10
3.0
 11
0.0
 20
0.0
 21
0.0
  0
LINE
  8
APS_GEOMETRY
 10
0.0
 11
0.0
 20
0.0
 21
1.105263
  0
ARC
  8
APS_GEOMETRY
 10
0.624745
 20
1.105516
 40
0.624745
 50
161.80829
 51
180.023189
  0
ARC
  8
APS_GEOMETRY
 10
0.69043
 20
1.084365
 40
0.69375
 50
145.175697
 51
161.842414
  0
ARC
  8
APS_GEOMETRY
 10
0.681152
 20
1.090927
 40
0.682387
 50
128.790704
 51
145.183133
  0
ARC
  8
APS_GEOMETRY
 10
0.630434
 20
1.154025
 40
0.601432
 50
110.886161
 51
128.790497
  0
ARC
  8
APS_GEOMETRY
 10
0.606414
 20
1.214684
 40
0.536196
 50
100.792027
 51
110.798938
  0
ARC
  8
APS_GEOMETRY
 10
0.597165
 20
1.26284
 40
0.48716
 50
89.990892
 51
100.784018
  0
ARC
  8
APS_GEOMETRY
 10
0.596905
 20
1.267763
 40
0.482237
 50
67.481086
 51
89.959842
  0
ARC
  8
APS_GEOMETRY
 10
0.558125
 20
1.175268
 40
0.582532
 50
48.222779
 51
67.44189
  0
ARC
  8
APS_GEOMETRY
 10
0.478183
 20
1.085312
 40
0.702876
 50
32.001208
 51
48.248576
  0
ARC
  8
APS_GEOMETRY
 10
0.389478
 20
1.029398
 40
0.807732
 50
17.108069
 51
32.030211
  0
ARC
  8
APS_GEOMETRY
 10
0.378976
 20
1.025255
 40
0.818989
 50
9.674138
 51
17.168921
  0
ARC
  8
APS_GEOMETRY
 10
0.406956
 20
1.029967
 40
0.790615
 50
1.930032
 51
9.678308
  0
ARC
  8
APS_GEOMETRY
 10
1.641916
 20
1.075387
 40
0.44519
 50
182.419431
 51
196.853941
  0
ARC
  8
APS_GEOMETRY
 10
1.603189
 20
1.063466
 40
0.404671
 50
196.828308
 51
211.472437
  0
ARC
  8
APS_GEOMETRY
 10
1.604433
 20
1.062254
 40
0.405102
 50
211.234334
 51
238.647227
  0
ARC
  8
APS_GEOMETRY
 10
1.624848
 20
1.097946
 40
0.446206
 50
238.793185
 51
264.449564
  0
ARC
  8
APS_GEOMETRY
 10
1.620455
 20
1.066464
 40
0.414449
 50
264.633109
 51
292.050663
  0
ARC
  8
APS_GEOMETRY
 10
1.625099
 20
1.050803
 40
0.398193
 50
292.277368
 51
322.038858
  0
ARC
  8
APS_GEOMETRY
 10
2.113532
 20
0.678946
 40
0.215763
 50
132.941556
 51
143.968907
  0
ARC
  8
APS_GEOMETRY
 10
2.206382
 20
0.576838
 40
0.353769
 50
123.773899
 51
132.68393
  0
ARC
  8
APS_GEOMETRY
 10
2.211914
 20
0.568504
 40
0.363772
 50
115.209232
 51
123.768406
  0
ARC
  8
APS_GEOMETRY
 10
2.17231
 20
0.652644
 40
0.270777
 50
104.94735
 51
115.210251
  0
ARC
  8
APS_GEOMETRY
 10
2.156623
 20
0.711179
 40
0.210177
 50
98.299967
 51
104.93154
  0
ARC
  8
APS_GEOMETRY
 10
2.146765
 20
0.778721
 40
0.141919
 50
89.975543
 51
98.298182
  0
ARC
  8
APS_GEOMETRY
 10
2.146773
 20
0.721537
 40
0.199103
 50
68.333316
 51
89.984823
  0
ARC
  8
APS_GEOMETRY
 10
2.118827
 20
0.651476
 40
0.274532
 50
50.851259
 51
68.311473
  0
ARC
  8
APS_GEOMETRY
 10
2.093862
 20
0.620751
 40
0.314121
 50
35.234005
 51
50.85809
  0
ARC
  8
APS_GEOMETRY
 10
2.110336
 20
0.632385
 40
0.293953
 50
18.954628
 51
35.234297
  0
ARC
  8
APS_GEOMETRY
 10
2.130561
 20
0.638963
 40
0.272688
 50
9.97452
 51
19.027621
  0
ARC
  8
APS_GEOMETRY
 10
2.161014
 20
0.644289
 40
0.241773
 50
0.1062
 51
9.981617
  0
LINE
  8
APS_GEOMETRY
 10
2.402787
 11
2.658719
 20
0.644737
 21
0.644737
  0
ARC
  8
APS_GEOMETRY
 10
3.052713
 20
0.644444
 40
0.393994
 50
179.957343
 51
200.922288
  0
ARC
  8
APS_GEOMETRY
 10
3.031978
 20
0.636044
 40
0.371627
 50
200.854254
 51
222.657655
  0
ARC
  8
APS_GEOMETRY
 10
3.00937
 20
0.615091
 40
0.340802
 50
222.642569
 51
245.750286
  0
LINE
  8
CONSTRUCTION
 10
0.152615
 11
0.10065
 20
-1.038482
 21
-1.166909
  0
LINE
  8
CONSTRUCTION
 10
0.10065
 11
0.20458
 20
-1.166909
 21
-1.166909
  0
LINE
  8
CONSTRUCTION
 10
0.20458
 11
0.152615
 20
-1.166909
 21
-1.038482
  0
LINE
  8
CONSTRUCTION
 10
0.152615
 11
0.559547
 20
-1.038482
 21
-1.03848
  0
LINE
  8
CONSTRUCTION
 10
0.559547
 11
0.507582
 20
-1.03848
 21
-1.166908
  0
LINE
  8
CONSTRUCTION
 10
0.507582
 11
0.611512
 20
-1.166908
 21
-1.166908
  0
LINE
  8
CONSTRUCTION
 10
0.611512
 11
0.559547
 20
-1.166908
 21
-1.03848
  0
LINE
  8
CONSTRUCTION
 10
0.559547
 11
0.966478
 20
-1.03848
 21
-1.03848
  0
LINE
  8
CONSTRUCTION
 10
0.966478
 11
0.914513
 20
-1.03848
 21
-1.166908
  0
LINE
  8
CONSTRUCTION
 10
0.914513
 11
1.018442
 20
-1.166908
 21
-1.166908
  0
LINE
  8
CONSTRUCTION
 10
1.018442
 11
0.966478
 20
-1.166908
 21
-1.03848
  0
LINE
  8
CONSTRUCTION
 10
0.966478
 11
1.373408
 20
-1.03848
 21
-1.03848
  0
LINE
  8
CONSTRUCTION
 10
1.373408
 11
1.321443
 20
-1.03848
 21
-1.166908
  0
LINE
  8
CONSTRUCTION
 10
1.321443
 11
1.425373
 20
-1.166908
 21
-1.166908
  0
LINE
  8
CONSTRUCTION
 10
1.425373
 11
1.373408
 20
-1.166908
 21
-1.03848
  0
LINE
  8
CONSTRUCTION
 10
1.373408
 11
1.780281
 20
-1.03848
 21
-1.038482
  0
LINE
  8
CONSTRUCTION
 10
1.780281
 11
1.728316
 20
-1.038482
 21
-1.166909
  0
LINE
  8
CONSTRUCTION
 10
1.728316
 11
1.832246
 20
-1.166909
 21
-1.166909
  0
LINE
  8
CONSTRUCTION
 10
1.832246
 11
1.780281
 20
-1.166909
 21
-1.038482
  0
LINE
  8
CONSTRUCTION
 10
0.0
 11
4.0
 20
-1.561751
 21
-1.561751
  0
TEXT
  8
TEXT
 10
0.10065
 20
-1.405784
 30
0.0
 40
0.224
 50
0.0
  1
DOVETAIL DESIGNS
  0
TEXT
  8
TEXT
 10
2.276036
 20
-1.551751
 30
0.0
 40
0.099
 50
0.0
  1
& MILLWORK INC.
  0
TEXT
  8
TEXT
 10
1.092458
 20
-1.640461
 30
0.0
 40
0.07
 50
0.0
  1
Established 1979
  0
TEXT
  8
TEXT
 10
0.1
 20
-1.8
 30
0.0
 40
0.1
 50
0.0
  1
Phone: (406) 248-5010    Website: www.dovetailmt.com
  0
TEXT
  8
TEXT
 10
0.0
 20
-0.25
 30
0.0
 40
0.15625
 50
0.0
  1
BO11
  0
TEXT
  8
TEXT
 10
0.0
 20
-0.5
 30
0.0
 40
0.1
 50
0.0
  1
1-3/4"x3"
  0
ENDSEC
  0
EOF
