  0
SECTION
  2
ENTITIES
  0
ARC
  8
APS_GEOMETRY
 10
2.249935
 20
0.448768
 40
0.261268
 50
247.996741
 51
270.014344
  0
LINE
  8
APS_GEOMETRY
 10
2.25
 11
2.25
 20
0.1875
 21
0.0
  0
LINE
  8
APS_GEOMETRY
 10
2.25
 11
0.0
 20
0.0
 21
0.0
  0
LINE
  8
APS_GEOMETRY
 10
0.0
 11
0.0
 20
0.0
 21
0.75
  0
ARC
  8
APS_GEOMETRY
 10
0.387253
 20
0.749894
 40
0.387253
 50
159.971629
 51
179.984311
  0
ARC
  8
APS_GEOMETRY
 10
0.450629
 20
0.726789
 40
0.454709
 50
142.332565
 51
159.971383
  0
ARC
  8
APS_GEOMETRY
 10
0.474953
 20
0.70802
 40
0.485433
 50
125.910186
 51
142.333348
  0
ARC
  8
APS_GEOMETRY
 10
0.463009
 20
0.724501
 40
0.465079
 50
108.945519
 51
125.90925
  0
ARC
  8
APS_GEOMETRY
 10
0.453387
 20
0.752559
 40
0.435417
 50
99.768663
 51
108.946732
  0
ARC
  8
APS_GEOMETRY
 10
0.447826
 20
0.784798
 40
0.402702
 50
89.985002
 51
99.767192
  0
ARC
  8
APS_GEOMETRY
 10
0.448045
 20
0.792545
 40
0.394955
 50
69.525423
 51
90.016418
  0
ARC
  8
APS_GEOMETRY
 10
0.430238
 20
0.744848
 40
0.445868
 50
51.191425
 51
69.525632
  0
ARC
  8
APS_GEOMETRY
 10
0.400986
 20
0.708482
 40
0.492538
 50
34.74833
 51
51.191047
  0
ARC
  8
APS_GEOMETRY
 10
0.374327
 20
0.689988
 40
0.524984
 50
18.867568
 51
34.748451
  0
ARC
  8
APS_GEOMETRY
 10
0.386658
 20
0.694201
 40
0.511953
 50
10.682346
 51
18.867728
  0
ARC
  8
APS_GEOMETRY
 10
0.411015
 20
0.6988
 40
0.487166
 50
2.138005
 51
10.68184
  0
ARC
  8
APS_GEOMETRY
 10
1.173635
 20
0.729994
 40
0.2761
 50
182.702922
 51
198.553999
  0
ARC
  8
APS_GEOMETRY
 10
1.160779
 20
0.725711
 40
0.26255
 50
198.560487
 51
214.163933
  0
ARC
  8
APS_GEOMETRY
 10
1.184389
 20
0.741733
 40
0.291083
 50
214.163651
 51
241.442841
  0
ARC
  8
APS_GEOMETRY
 10
1.216976
 20
0.801613
 40
0.359256
 50
241.443286
 51
265.096598
  0
ARC
  8
APS_GEOMETRY
 10
1.215398
 20
0.783167
 40
0.340742
 50
265.095876
 51
290.017737
  0
ARC
  8
APS_GEOMETRY
 10
1.230164
 20
0.742627
 40
0.297597
 50
290.018227
 51
318.859532
  0
ARC
  8
APS_GEOMETRY
 10
1.572898
 20
0.451294
 40
0.152307
 50
130.043345
 51
141.148794
  0
ARC
  8
APS_GEOMETRY
 10
1.643432
 20
0.365695
 40
0.263219
 50
121.146506
 51
129.809666
  0
ARC
  8
APS_GEOMETRY
 10
1.653064
 20
0.349751
 40
0.281847
 50
113.045586
 51
121.145981
  0
ARC
  8
APS_GEOMETRY
 10
1.627776
 20
0.409207
 40
0.217237
 50
103.557528
 51
113.046745
  0
ARC
  8
APS_GEOMETRY
 10
1.61724
 20
0.452907
 40
0.172284
 50
97.513333
 51
103.55809
  0
ARC
  8
APS_GEOMETRY
 10
1.610064
 20
0.507271
 40
0.117449
 50
89.973108
 51
97.510817
  0
ARC
  8
APS_GEOMETRY
 10
1.610214
 20
0.461507
 40
0.163213
 50
70.307459
 51
90.033168
  0
ARC
  8
APS_GEOMETRY
 10
1.593853
 20
0.415788
 40
0.211771
 50
53.737437
 51
70.307919
  0
ARC
  8
APS_GEOMETRY
 10
1.586916
 20
0.406338
 40
0.223494
 50
38.085127
 51
53.736672
  0
ARC
  8
APS_GEOMETRY
 10
1.610779
 20
0.425037
 40
0.193178
 50
20.88676
 51
38.085485
  0
ARC
  8
APS_GEOMETRY
 10
1.631531
 20
0.432951
 40
0.170968
 50
11.020499
 51
20.888166
  0
ARC
  8
APS_GEOMETRY
 10
1.653213
 20
0.437181
 40
0.148877
 50
0.122611
 51
11.017699
  0
LINE
  8
APS_GEOMETRY
 10
1.80209
 11
1.994039
 20
0.4375
 21
0.4375
  0
ARC
  8
APS_GEOMETRY
 10
2.238994
 20
0.437567
 40
0.244955
 50
180.015664
 51
203.00667
  0
ARC
  8
APS_GEOMETRY
 10
2.243321
 20
0.439504
 40
0.249695
 50
203.027673
 51
225.725003
  0
ARC
  8
APS_GEOMETRY
 10
2.248041
 20
0.444339
 40
0.256452
 50
225.724063
 51
248.018272
  0
LINE
  8
CONSTRUCTION
 10
0.152615
 11
0.10065
 20
-1.038482
 21
-1.166909
  0
LINE
  8
CONSTRUCTION
 10
0.10065
 11
0.20458
 20
-1.166909
 21
-1.166909
  0
LINE
  8
CONSTRUCTION
 10
0.20458
 11
0.152615
 20
-1.166909
 21
-1.038482
  0
LINE
  8
CONSTRUCTION
 10
0.152615
 11
0.559547
 20
-1.038482
 21
-1.03848
  0
LINE
  8
CONSTRUCTION
 10
0.559547
 11
0.507582
 20
-1.03848
 21
-1.166908
  0
LINE
  8
CONSTRUCTION
 10
0.507582
 11
0.611512
 20
-1.166908
 21
-1.166908
  0
LINE
  8
CONSTRUCTION
 10
0.611512
 11
0.559547
 20
-1.166908
 21
-1.03848
  0
LINE
  8
CONSTRUCTION
 10
0.559547
 11
0.966478
 20
-1.03848
 21
-1.03848
  0
LINE
  8
CONSTRUCTION
 10
0.966478
 11
0.914513
 20
-1.03848
 21
-1.166908
  0
LINE
  8
CONSTRUCTION
 10
0.914513
 11
1.018442
 20
-1.166908
 21
-1.166908
  0
LINE
  8
CONSTRUCTION
 10
1.018442
 11
0.966478
 20
-1.166908
 21
-1.03848
  0
LINE
  8
CONSTRUCTION
 10
0.966478
 11
1.373408
 20
-1.03848
 21
-1.03848
  0
LINE
  8
CONSTRUCTION
 10
1.373408
 11
1.321443
 20
-1.03848
 21
-1.166908
  0
LINE
  8
CONSTRUCTION
 10
1.321443
 11
1.425373
 20
-1.166908
 21
-1.166908
  0
LINE
  8
CONSTRUCTION
 10
1.425373
 11
1.373408
 20
-1.166908
 21
-1.03848
  0
LINE
  8
CONSTRUCTION
 10
1.373408
 11
1.780281
 20
-1.03848
 21
-1.038482
  0
LINE
  8
CONSTRUCTION
 10
1.780281
 11
1.728316
 20
-1.038482
 21
-1.166909
  0
LINE
  8
CONSTRUCTION
 10
1.728316
 11
1.832246
 20
-1.166909
 21
-1.166909
  0
LINE
  8
CONSTRUCTION
 10
1.832246
 11
1.780281
 20
-1.166909
 21
-1.038482
  0
LINE
  8
CONSTRUCTION
 10
0.0
 11
4.0
 20
-1.561751
 21
-1.561751
  0
TEXT
  8
TEXT
 10
0.10065
 20
-1.405784
 30
0.0
 40
0.224
 50
0.0
  1
DOVETAIL DESIGNS
  0
TEXT
  8
TEXT
 10
2.276036
 20
-1.551751
 30
0.0
 40
0.099
 50
0.0
  1
& MILLWORK INC.
  0
TEXT
  8
TEXT
 10
1.092458
 20
-1.640461
 30
0.0
 40
0.07
 50
0.0
  1
Established 1979
  0
TEXT
  8
TEXT
 10
0.1
 20
-1.8
 30
0.0
 40
0.1
 50
0.0
  1
Phone: (406) 248-5010    Website: www.dovetailmt.com
  0
TEXT
  8
TEXT
 10
0.0
 20
-0.5
 30
0.0
 40
0.1
 50
0.0
  1
1-3/16"x2-1/4
  0
TEXT
  8
TEXT
 10
0.0
 20
-0.25
 30
0.0
 40
0.15625
 50
0.0
  1
BO10
  0
ENDSEC
  0
EOF
