  0
SECTION
  2
ENTITIES
  0
ARC
  8
APS_GEOMETRY
 10
3.21875
 20
0.3125
 40
0.03125
 50
0.0
 51
90.0
  0
LINE
  8
APS_GEOMETRY
 10
3.21875
 11
3.03125
 20
0.34375
 21
0.34375
  0
ARC
  8
APS_GEOMETRY
 10
2.807365
 20
0.34375
 40
0.223885
 50
0.0
 51
10.970487
  0
ARC
  8
APS_GEOMETRY
 10
2.877134
 20
0.357274
 40
0.152817
 50
10.970491
 51
25.836844
  0
ARC
  8
APS_GEOMETRY
 10
2.86732
 20
0.352521
 40
0.163722
 50
25.837153
 51
40.78673
  0
ARC
  8
APS_GEOMETRY
 10
2.85585
 20
0.342627
 40
0.178869
 50
40.78632
 51
55.025184
  0
ARC
  8
APS_GEOMETRY
 10
2.866621
 20
0.358022
 40
0.160081
 50
55.025653
 51
71.087401
  0
ARC
  8
APS_GEOMETRY
 10
2.881456
 20
0.401325
 40
0.114307
 50
71.086639
 51
91.169065
  0
ARC
  8
APS_GEOMETRY
 10
2.881507
 20
0.398952
 40
0.116681
 50
91.17046
 51
110.790066
  0
ARC
  8
APS_GEOMETRY
 10
2.900216
 20
0.349655
 40
0.169408
 50
110.787838
 51
126.071859
  0
ARC
  8
APS_GEOMETRY
 10
2.9134
 20
0.331568
 40
0.19179
 50
126.073745
 51
139.341081
  0
ARC
  8
APS_GEOMETRY
 10
2.898403
 20
0.34445
 40
0.17202
 50
139.341383
 51
153.25058
  0
LINE
  8
APS_GEOMETRY
 10
2.744792
 11
2.557292
 20
0.421875
 21
0.421875
  0
LINE
  8
APS_GEOMETRY
 10
2.557292
 11
2.453125
 20
0.421875
 21
0.546875
  0
ARC
  8
APS_GEOMETRY
 10
2.157589
 20
1.072272
 40
0.602813
 50
292.332865
 51
299.357755
  0
ARC
  8
APS_GEOMETRY
 10
2.139574
 20
1.116116
 40
0.650214
 50
285.672138
 51
292.333224
  0
ARC
  8
APS_GEOMETRY
 10
2.144096
 20
1.100012
 40
0.633487
 50
271.795228
 51
285.671771
  0
ARC
  8
APS_GEOMETRY
 10
2.149464
 20
0.928836
 40
0.462227
 50
253.917088
 51
271.794882
  0
ARC
  8
APS_GEOMETRY
 10
2.178838
 20
1.030745
 40
0.568285
 50
246.910565
 51
253.917801
  0
ARC
  8
APS_GEOMETRY
 10
2.304315
 20
1.325065
 40
0.888236
 50
241.811627
 51
246.910423
  0
ARC
  8
APS_GEOMETRY
 10
2.439304
 20
1.576935
 40
1.173999
 50
238.506516
 51
241.811465
  0
ARC
  8
APS_GEOMETRY
 10
3.386072
 20
3.122297
 40
2.986322
 50
236.849252
 51
238.506341
  0
LINE
  8
APS_GEOMETRY
 10
1.753021
 11
1.622165
 20
0.622045
 21
0.707017
  0
ARC
  8
APS_GEOMETRY
 10
0.802768
 20
-0.613787
 40
1.554328
 50
58.185465
 51
61.239974
  0
ARC
  8
APS_GEOMETRY
 10
1.149431
 20
0.017796
 40
0.833861
 50
61.241229
 51
66.039286
  0
ARC
  8
APS_GEOMETRY
 10
1.217365
 20
0.170681
 40
0.666562
 50
66.038586
 51
72.692613
  0
ARC
  8
APS_GEOMETRY
 10
1.272802
 20
0.348573
 40
0.480232
 50
72.693159
 51
81.155868
  0
ARC
  8
APS_GEOMETRY
 10
1.278246
 20
0.383603
 40
0.444782
 50
81.154938
 51
91.034379
  0
ARC
  8
APS_GEOMETRY
 10
1.277228
 20
0.440052
 40
0.388324
 50
91.034608
 51
102.236826
  0
ARC
  8
APS_GEOMETRY
 10
1.262165
 20
0.509499
 40
0.317262
 50
102.23662
 51
116.917912
  0
ARC
  8
APS_GEOMETRY
 10
1.20847
 20
0.615259
 40
0.198652
 50
116.918317
 51
137.29061
  0
LINE
  8
APS_GEOMETRY
 10
1.0625
 11
0.8125
 20
0.750001
 21
1.0
  0
LINE
  8
APS_GEOMETRY
 10
0.8125
 11
0.0
 20
1.0
 21
1.0
  0
LINE
  8
APS_GEOMETRY
 10
0.0
 11
0.0
 20
1.0
 21
0.0
  0
LINE
  8
APS_GEOMETRY
 10
0.0
 11
3.25
 20
0.0
 21
0.0
  0
LINE
  8
APS_GEOMETRY
 10
3.25
 11
3.25
 20
0.0
 21
0.3125
  0
LINE
  8
CONSTRUCTION
 10
0.152615
 11
0.10065
 20
-1.038482
 21
-1.166909
  0
LINE
  8
CONSTRUCTION
 10
0.10065
 11
0.20458
 20
-1.166909
 21
-1.166909
  0
LINE
  8
CONSTRUCTION
 10
0.20458
 11
0.152615
 20
-1.166909
 21
-1.038482
  0
LINE
  8
CONSTRUCTION
 10
0.152615
 11
0.559547
 20
-1.038482
 21
-1.03848
  0
LINE
  8
CONSTRUCTION
 10
0.559547
 11
0.507582
 20
-1.03848
 21
-1.166908
  0
LINE
  8
CONSTRUCTION
 10
0.507582
 11
0.611512
 20
-1.166908
 21
-1.166908
  0
LINE
  8
CONSTRUCTION
 10
0.611512
 11
0.559547
 20
-1.166908
 21
-1.03848
  0
LINE
  8
CONSTRUCTION
 10
0.559547
 11
0.966478
 20
-1.03848
 21
-1.03848
  0
LINE
  8
CONSTRUCTION
 10
0.966478
 11
0.914513
 20
-1.03848
 21
-1.166908
  0
LINE
  8
CONSTRUCTION
 10
0.914513
 11
1.018442
 20
-1.166908
 21
-1.166908
  0
LINE
  8
CONSTRUCTION
 10
1.018442
 11
0.966478
 20
-1.166908
 21
-1.03848
  0
LINE
  8
CONSTRUCTION
 10
0.966478
 11
1.373408
 20
-1.03848
 21
-1.03848
  0
LINE
  8
CONSTRUCTION
 10
1.373408
 11
1.321443
 20
-1.03848
 21
-1.166908
  0
LINE
  8
CONSTRUCTION
 10
1.321443
 11
1.425373
 20
-1.166908
 21
-1.166908
  0
LINE
  8
CONSTRUCTION
 10
1.425373
 11
1.373408
 20
-1.166908
 21
-1.03848
  0
LINE
  8
CONSTRUCTION
 10
1.373408
 11
1.780281
 20
-1.03848
 21
-1.038482
  0
LINE
  8
CONSTRUCTION
 10
1.780281
 11
1.728316
 20
-1.038482
 21
-1.166909
  0
LINE
  8
CONSTRUCTION
 10
1.728316
 11
1.832246
 20
-1.166909
 21
-1.166909
  0
LINE
  8
CONSTRUCTION
 10
1.832246
 11
1.780281
 20
-1.166909
 21
-1.038482
  0
LINE
  8
CONSTRUCTION
 10
0.0
 11
4.0
 20
-1.561751
 21
-1.561751
  0
TEXT
  8
TEXT
 10
0.10065
 20
-1.405784
 30
0.0
 40
0.224
 50
0.0
  1
DOVETAIL DESIGNS
  0
TEXT
  8
TEXT
 10
2.276036
 20
-1.551751
 30
0.0
 40
0.099
 50
0.0
  1
& MILLWORK INC.
  0
TEXT
  8
TEXT
 10
1.092458
 20
-1.640461
 30
0.0
 40
0.07
 50
0.0
  1
Established 1979
  0
TEXT
  8
TEXT
 10
0.1
 20
-1.8
 30
0.0
 40
0.1
 50
0.0
  1
Phone: (406) 248-5010    Website: www.dovetailmt.com
  0
TEXT
  8
TEXT
 10
0.0
 20
-0.5
 30
0.0
 40
0.1
 50
0.0
  1
1"x3-1/2"
  0
TEXT
  8
TEXT
 10
0.0
 20
-0.25
 30
0.0
 40
0.15625
 50
0.0
  1
BM8
  0
ENDSEC
  0
EOF
