  0
SECTION
  2
ENTITIES
  0
ARC
  8
APS_GEOMETRY
 10
1.73737
 20
1.234608
 40
0.54988
 50
208.539452
 51
267.384595
  0
ARC
  8
APS_GEOMETRY
 10
1.710453
 20
0.645342
 40
0.04
 50
1.999355
 51
87.384795
  0
LINE
  8
APS_GEOMETRY
 10
1.750429
 11
1.755555
 20
0.646738
 21
0.49995
  0
LINE
  8
APS_GEOMETRY
 10
1.755555
 11
1.896496
 20
0.49995
 21
0.49995
  0
ARC
  8
APS_GEOMETRY
 10
1.896496
 20
0.45995
 40
0.04
 50
2.0
 51
90.0
  0
LINE
  8
APS_GEOMETRY
 10
1.936472
 11
1.939488
 20
0.461346
 21
0.374962
  0
LINE
  8
APS_GEOMETRY
 10
1.939488
 11
1.962572
 20
0.374962
 21
0.374962
  0
ARC
  8
APS_GEOMETRY
 10
1.962572
 20
0.334962
 40
0.04
 50
7.92883
 51
90.0
  0
ARC
  8
APS_GEOMETRY
 10
2.249775
 20
0.374962
 40
0.249975
 50
187.92883
 51
270.000025
  0
LINE
  8
APS_GEOMETRY
 10
2.249775
 11
2.249775
 20
0.124987
 21
0.0
  0
LINE
  8
APS_GEOMETRY
 10
2.249775
 11
0.0
 20
0.0
 21
0.0
  0
LINE
  8
APS_GEOMETRY
 10
0.0
 11
0.0
 20
0.0
 21
1.499867
  0
LINE
  8
APS_GEOMETRY
 10
0.0
 11
0.706933
 20
1.499867
 21
1.499867
  0
ARC
  8
APS_GEOMETRY
 10
0.706933
 20
1.459867
 40
0.04
 50
2.0
 51
90.0
  0
LINE
  8
APS_GEOMETRY
 10
0.746909
 11
0.75429
 20
1.461263
 21
1.249892
  0
LINE
  8
APS_GEOMETRY
 10
0.75429
 11
0.819596
 20
1.249892
 21
1.249892
  0
ARC
  8
APS_GEOMETRY
 10
0.784759
 20
0.716534
 40
0.534494
 50
28.53932
 51
86.263006
  0
LINE
  8
CONSTRUCTION
 10
0.152615
 11
0.10065
 20
-1.038482
 21
-1.166909
  0
LINE
  8
CONSTRUCTION
 10
0.10065
 11
0.20458
 20
-1.166909
 21
-1.166909
  0
LINE
  8
CONSTRUCTION
 10
0.20458
 11
0.152615
 20
-1.166909
 21
-1.038482
  0
LINE
  8
CONSTRUCTION
 10
0.152615
 11
0.559547
 20
-1.038482
 21
-1.03848
  0
LINE
  8
CONSTRUCTION
 10
0.559547
 11
0.507582
 20
-1.03848
 21
-1.166908
  0
LINE
  8
CONSTRUCTION
 10
0.507582
 11
0.611512
 20
-1.166908
 21
-1.166908
  0
LINE
  8
CONSTRUCTION
 10
0.611512
 11
0.559547
 20
-1.166908
 21
-1.03848
  0
LINE
  8
CONSTRUCTION
 10
0.559547
 11
0.966478
 20
-1.03848
 21
-1.03848
  0
LINE
  8
CONSTRUCTION
 10
0.966478
 11
0.914513
 20
-1.03848
 21
-1.166908
  0
LINE
  8
CONSTRUCTION
 10
0.914513
 11
1.018442
 20
-1.166908
 21
-1.166908
  0
LINE
  8
CONSTRUCTION
 10
1.018442
 11
0.966478
 20
-1.166908
 21
-1.03848
  0
LINE
  8
CONSTRUCTION
 10
0.966478
 11
1.373408
 20
-1.03848
 21
-1.03848
  0
LINE
  8
CONSTRUCTION
 10
1.373408
 11
1.321443
 20
-1.03848
 21
-1.166908
  0
LINE
  8
CONSTRUCTION
 10
1.321443
 11
1.425373
 20
-1.166908
 21
-1.166908
  0
LINE
  8
CONSTRUCTION
 10
1.425373
 11
1.373408
 20
-1.166908
 21
-1.03848
  0
LINE
  8
CONSTRUCTION
 10
1.373408
 11
1.780281
 20
-1.03848
 21
-1.038482
  0
LINE
  8
CONSTRUCTION
 10
1.780281
 11
1.728316
 20
-1.038482
 21
-1.166909
  0
LINE
  8
CONSTRUCTION
 10
1.728316
 11
1.832246
 20
-1.166909
 21
-1.166909
  0
LINE
  8
CONSTRUCTION
 10
1.832246
 11
1.780281
 20
-1.166909
 21
-1.038482
  0
LINE
  8
CONSTRUCTION
 10
0.0
 11
4.0
 20
-1.561751
 21
-1.561751
  0
TEXT
  8
TEXT
 10
0.10065
 20
-1.405784
 30
0.0
 40
0.224
 50
0.0
  1
DOVETAIL DESIGNS
  0
TEXT
  8
TEXT
 10
2.276036
 20
-1.551751
 30
0.0
 40
0.099
 50
0.0
  1
& MILLWORK INC.
  0
TEXT
  8
TEXT
 10
1.092458
 20
-1.640461
 30
0.0
 40
0.07
 50
0.0
  1
Established 1979
  0
TEXT
  8
TEXT
 10
0.1
 20
-1.8
 30
0.0
 40
0.1
 50
0.0
  1
Phone: (406) 248-5010    Website: www.dovetailmt.com
  0
TEXT
  8
TEXT
 10
0.0
 20
-0.5
 30
0.0
 40
0.1
 50
0.0
  1
1-1/2"x2-1/4"
  0
TEXT
  8
TEXT
 10
0.0
 20
-0.25
 30
0.0
 40
0.15625
 50
0.0
  1
BM12
  0
ENDSEC
  0
EOF
