  0
SECTION
  2
ENTITIES
  0
ARC
  8
APS_GEOMETRY
 10
0.591509
 20
2.531123
 40
0.045597
 50
314.845755
 51
355.923898
  0
LINE
  8
APS_GEOMETRY
 10
0.636991
 11
0.66055
 20
2.527882
 21
2.858485
  0
ARC
  8
APS_GEOMETRY
 10
0.575355
 20
2.864556
 40
0.085411
 50
355.924068
 51
13.160653
  0
ARC
  8
APS_GEOMETRY
 10
0.480908
 20
2.842474
 40
0.182405
 50
13.159941
 51
37.684487
  0
ARC
  8
APS_GEOMETRY
 10
0.525603
 20
2.877001
 40
0.125927
 50
37.683671
 51
39.714466
  0
ARC
  8
APS_GEOMETRY
 10
0.473824
 20
2.836065
 40
0.191921
 50
39.238265
 51
90.000232
  0
LINE
  8
APS_GEOMETRY
 10
0.473823
 11
0.0
 20
3.027986
 21
3.027986
  0
LINE
  8
APS_GEOMETRY
 10
0.0
 11
0.0
 20
3.027986
 21
2.348019
  0
LINE
  8
APS_GEOMETRY
 10
0.0
 11
0.390544
 20
2.348019
 21
0.374616
  0
LINE
  8
APS_GEOMETRY
 10
0.390544
 11
0.757033
 20
0.374616
 21
0.188291
  0
LINE
  8
APS_GEOMETRY
 10
0.757033
 11
0.756107
 20
0.188291
 21
0.019793
  0
LINE
  8
APS_GEOMETRY
 10
0.756107
 11
0.988354
 20
0.019793
 21
0.0
  0
LINE
  8
APS_GEOMETRY
 10
0.988354
 11
1.040493
 20
0.0
 21
0.907185
  0
ARC
  8
APS_GEOMETRY
 10
0.935092
 20
0.915696
 40
0.105744
 50
355.383581
 51
11.521943
  0
ARC
  8
APS_GEOMETRY
 10
0.994006
 20
0.927703
 40
0.045619
 50
11.524708
 51
25.252969
  0
ARC
  8
APS_GEOMETRY
 10
0.988181
 20
0.924961
 40
0.052057
 50
25.247528
 51
43.585265
  0
ARC
  8
APS_GEOMETRY
 10
0.976581
 20
0.913915
 40
0.068075
 50
43.588429
 51
58.454588
  0
ARC
  8
APS_GEOMETRY
 10
0.974116
 20
0.909907
 40
0.07278
 50
58.451614
 51
65.514471
  0
ARC
  8
APS_GEOMETRY
 10
0.944444
 20
0.844721
 40
0.144402
 50
65.520006
 51
72.583954
  0
ARC
  8
APS_GEOMETRY
 10
0.943059
 20
0.840331
 40
0.149005
 50
72.580942
 51
76.929202
  0
ARC
  8
APS_GEOMETRY
 10
0.879185
 20
0.56526
 40
0.431395
 50
76.927755
 51
80.230109
  0
LINE
  8
APS_GEOMETRY
 10
0.952389
 11
0.858547
 20
0.990398
 21
1.007972
  0
LINE
  8
APS_GEOMETRY
 10
0.858547
 11
0.877341
 20
1.007972
 21
1.281654
  0
ARC
  8
APS_GEOMETRY
 10
0.793964
 20
1.284223
 40
0.083417
 50
358.235148
 51
11.890102
  0
ARC
  8
APS_GEOMETRY
 10
0.834273
 20
1.292709
 40
0.042224
 50
11.891977
 51
22.193488
  0
ARC
  8
APS_GEOMETRY
 10
0.824322
 20
1.28865
 40
0.052971
 50
22.19273
 51
34.580262
  0
ARC
  8
APS_GEOMETRY
 10
0.811701
 20
1.279952
 40
0.068299
 50
34.578335
 51
44.979533
  0
ARC
  8
APS_GEOMETRY
 10
0.81319
 20
1.281435
 40
0.066198
 50
44.983001
 51
49.945373
  0
ARC
  8
APS_GEOMETRY
 10
0.782674
 20
1.245135
 40
0.11362
 50
49.946169
 51
55.908448
  0
ARC
  8
APS_GEOMETRY
 10
0.774574
 20
1.233185
 40
0.128057
 50
55.904001
 51
60.031097
  0
ARC
  8
APS_GEOMETRY
 10
0.66794
 20
1.04823
 40
0.34155
 50
60.033462
 51
63.279306
  0
LINE
  8
APS_GEOMETRY
 10
0.821515
 11
0.784223
 20
1.353305
 21
1.370026
  0
LINE
  8
APS_GEOMETRY
 10
0.784223
 11
0.764009
 20
1.370026
 21
1.379071
  0
LINE
  8
APS_GEOMETRY
 10
0.764009
 11
0.743321
 20
1.379071
 21
1.389173
  0
LINE
  8
APS_GEOMETRY
 10
0.743321
 11
0.72259
 20
1.389173
 21
1.400783
  0
LINE
  8
APS_GEOMETRY
 10
0.72259
 11
0.702245
 20
1.400783
 21
1.41435
  0
LINE
  8
APS_GEOMETRY
 10
0.702245
 11
0.682716
 20
1.41435
 21
1.430326
  0
LINE
  8
APS_GEOMETRY
 10
0.682716
 11
0.673392
 20
1.430326
 21
1.439358
  0
LINE
  8
APS_GEOMETRY
 10
0.673392
 11
0.664433
 20
1.439358
 21
1.449161
  0
LINE
  8
APS_GEOMETRY
 10
0.664433
 11
0.655894
 20
1.449161
 21
1.459792
  0
LINE
  8
APS_GEOMETRY
 10
0.655894
 11
0.647826
 20
1.459792
 21
1.471306
  0
LINE
  8
APS_GEOMETRY
 10
0.647826
 11
0.640285
 20
1.471306
 21
1.48376
  0
LINE
  8
APS_GEOMETRY
 10
0.640285
 11
0.633324
 20
1.48376
 21
1.497211
  0
LINE
  8
APS_GEOMETRY
 10
0.633324
 11
0.608262
 20
1.497211
 21
1.551435
  0
LINE
  8
APS_GEOMETRY
 10
0.608262
 11
0.585583
 20
1.551435
 21
1.607148
  0
LINE
  8
APS_GEOMETRY
 10
0.585583
 11
0.565225
 20
1.607148
 21
1.664076
  0
LINE
  8
APS_GEOMETRY
 10
0.565225
 11
0.547125
 20
1.664076
 21
1.721945
  0
LINE
  8
APS_GEOMETRY
 10
0.547125
 11
0.531222
 20
1.721945
 21
1.78048
  0
LINE
  8
APS_GEOMETRY
 10
0.531222
 11
0.517452
 20
1.78048
 21
1.839406
  0
LINE
  8
APS_GEOMETRY
 10
0.517452
 11
0.505753
 20
1.839406
 21
1.898451
  0
LINE
  8
APS_GEOMETRY
 10
0.505753
 11
0.496062
 20
1.898451
 21
1.957339
  0
LINE
  8
APS_GEOMETRY
 10
0.496062
 11
0.488316
 20
1.957339
 21
2.015797
  0
LINE
  8
APS_GEOMETRY
 10
0.488316
 11
0.482454
 20
2.015797
 21
2.07355
  0
LINE
  8
APS_GEOMETRY
 10
0.482454
 11
0.478413
 20
2.07355
 21
2.130324
  0
LINE
  8
APS_GEOMETRY
 10
0.478413
 11
0.476129
 20
2.130324
 21
2.185845
  0
LINE
  8
APS_GEOMETRY
 10
0.476129
 11
0.475541
 20
2.185845
 21
2.239838
  0
LINE
  8
APS_GEOMETRY
 10
0.475541
 11
0.476586
 20
2.239838
 21
2.29203
  0
LINE
  8
APS_GEOMETRY
 10
0.476586
 11
0.479201
 20
2.29203
 21
2.342146
  0
LINE
  8
APS_GEOMETRY
 10
0.479201
 11
0.483324
 20
2.342146
 21
2.389912
  0
LINE
  8
APS_GEOMETRY
 10
0.483324
 11
0.483962
 20
2.389912
 21
2.397394
  0
LINE
  8
APS_GEOMETRY
 10
0.483962
 11
0.485333
 20
2.397394
 21
2.404269
  0
LINE
  8
APS_GEOMETRY
 10
0.485333
 11
0.487392
 20
2.404269
 21
2.410577
  0
LINE
  8
APS_GEOMETRY
 10
0.487392
 11
0.490091
 20
2.410577
 21
2.416359
  0
LINE
  8
APS_GEOMETRY
 10
0.490091
 11
0.497225
 20
2.416359
 21
2.426504
  0
LINE
  8
APS_GEOMETRY
 10
0.497225
 11
0.506365
 20
2.426504
 21
2.435027
  0
LINE
  8
APS_GEOMETRY
 10
0.506365
 11
0.517137
 20
2.435027
 21
2.442249
  0
LINE
  8
APS_GEOMETRY
 10
0.517137
 11
0.52917
 20
2.442249
 21
2.448491
  0
LINE
  8
APS_GEOMETRY
 10
0.52917
 11
0.55553
 20
2.448491
 21
2.459327
  0
LINE
  8
APS_GEOMETRY
 10
0.55553
 11
0.569
 20
2.459327
 21
2.464718
  0
ARC
  8
APS_GEOMETRY
 10
0.48478
 20
2.689301
 40
0.239855
 50
290.556256
 51
295.713539
  0
ARC
  8
APS_GEOMETRY
 10
0.537717
 20
2.579393
 40
0.117863
 50
295.709549
 51
315.521274
  0
ARC
  8
APS_GEOMETRY
 10
0.582807
 20
2.535098
 40
0.054656
 50
315.534294
 51
318.377023
  0
LINE
  8
CONSTRUCTION
 10
0.152615
 11
0.10065
 20
-1.038482
 21
-1.166909
  0
LINE
  8
CONSTRUCTION
 10
0.10065
 11
0.20458
 20
-1.166909
 21
-1.166909
  0
LINE
  8
CONSTRUCTION
 10
0.20458
 11
0.152615
 20
-1.166909
 21
-1.038482
  0
LINE
  8
CONSTRUCTION
 10
0.152615
 11
0.559547
 20
-1.038482
 21
-1.03848
  0
LINE
  8
CONSTRUCTION
 10
0.559547
 11
0.507582
 20
-1.03848
 21
-1.166908
  0
LINE
  8
CONSTRUCTION
 10
0.507582
 11
0.611512
 20
-1.166908
 21
-1.166908
  0
LINE
  8
CONSTRUCTION
 10
0.611512
 11
0.559547
 20
-1.166908
 21
-1.03848
  0
LINE
  8
CONSTRUCTION
 10
0.559547
 11
0.966478
 20
-1.03848
 21
-1.03848
  0
LINE
  8
CONSTRUCTION
 10
0.966478
 11
0.914513
 20
-1.03848
 21
-1.166908
  0
LINE
  8
CONSTRUCTION
 10
0.914513
 11
1.018442
 20
-1.166908
 21
-1.166908
  0
LINE
  8
CONSTRUCTION
 10
1.018442
 11
0.966478
 20
-1.166908
 21
-1.03848
  0
LINE
  8
CONSTRUCTION
 10
0.966478
 11
1.373408
 20
-1.03848
 21
-1.03848
  0
LINE
  8
CONSTRUCTION
 10
1.373408
 11
1.321443
 20
-1.03848
 21
-1.166908
  0
LINE
  8
CONSTRUCTION
 10
1.321443
 11
1.425373
 20
-1.166908
 21
-1.166908
  0
LINE
  8
CONSTRUCTION
 10
1.425373
 11
1.373408
 20
-1.166908
 21
-1.03848
  0
LINE
  8
CONSTRUCTION
 10
1.373408
 11
1.780281
 20
-1.03848
 21
-1.038482
  0
LINE
  8
CONSTRUCTION
 10
1.780281
 11
1.728316
 20
-1.038482
 21
-1.166909
  0
LINE
  8
CONSTRUCTION
 10
1.728316
 11
1.832246
 20
-1.166909
 21
-1.166909
  0
LINE
  8
CONSTRUCTION
 10
1.832246
 11
1.780281
 20
-1.166909
 21
-1.038482
  0
LINE
  8
CONSTRUCTION
 10
0.0
 11
4.0
 20
-1.561751
 21
-1.561751
  0
TEXT
  8
TEXT
 10
0.1
 20
-1.8
 30
0.0
 40
0.1
 50
0.0
  1
Phone: (406) 248-5010    Website: www.dovetailmt.com
  0
TEXT
  8
TEXT
 10
1.092458
 20
-1.640461
 30
0.0
 40
0.07
 50
0.0
  1
Established 1979
  0
TEXT
  8
TEXT
 10
2.276036
 20
-1.551751
 30
0.0
 40
0.099
 50
0.0
  1
& MILLWORK INC.
  0
TEXT
  8
TEXT
 10
0.10065
 20
-1.405784
 30
0.0
 40
0.224
 50
0.0
  1
DOVETAIL DESIGNS
  0
TEXT
  8
TEXT
 10
0.0
 20
-0.25
 30
0.0
 40
0.15625
 50
0.0
  1
BC708
  0
TEXT
  8
TEXT
 10
0.0
 20
-0.5
 30
0.0
 40
0.1
 50
0.0
  1
3/4"x3-5/32"
  0
ENDSEC
  0
EOF
