  0
SECTION
  2
ENTITIES
  0
ARC
  8
MOULD-NEW
 10
0.444723
 20
2.39712
 40
0.125
 50
208.132174
 51
270.0
  0
LINE
  8
MOULD-NEW
 10
0.444723
 11
0.471208
 20
2.27212
 21
2.27212
  0
LINE
  8
MOULD-NEW
 10
0.471208
 11
0.471208
 20
2.27212
 21
2.082477
  0
LINE
  8
MOULD-NEW
 10
0.471208
 11
0.608351
 20
2.082477
 21
2.032562
  0
ARC
  8
MOULD-NEW
 10
0.564647
 20
1.912485
 40
0.127783
 50
289.999917
 51
70.000255
  0
LINE
  8
MOULD-NEW
 10
0.608351
 11
0.51831
 20
1.792408
 21
1.759636
  0
LINE
  8
MOULD-NEW
 10
0.51831
 11
0.51831
 20
1.759636
 21
1.638954
  0
LINE
  8
MOULD-NEW
 10
0.51831
 11
1.076252
 20
1.638954
 21
0.858901
  0
LINE
  8
MOULD-NEW
 10
1.076252
 11
1.248655
 20
0.858901
 21
0.858901
  0
LINE
  8
MOULD-NEW
 10
1.248655
 11
1.248655
 20
0.858901
 21
0.307212
  0
ARC
  8
MOULD-NEW
 10
1.287166
 20
-0.018661
 40
0.328141
 50
96.739827
 51
176.739755
  0
LINE
  8
MOULD-NEW
 10
0.959556
 11
0.734375
 20
0.0
 21
0.0
  0
LINE
  8
MOULD-NEW
 10
0.734375
 11
0.734375
 20
0.0
 21
0.335014
  0
LINE
  8
MOULD-NEW
 10
0.734375
 11
0.485201
 20
0.335014
 21
0.425705
  0
LINE
  8
MOULD-NEW
 10
0.485201
 11
0.0
 20
0.425705
 21
1.466223
  0
LINE
  8
MOULD-NEW
 10
0.0
 11
0.0
 20
1.466223
 21
2.586841
  0
LINE
  8
MOULD-NEW
 10
0.0
 11
0.164083
 20
2.586841
 21
2.586841
  0
ARC
  8
MOULD-NEW
 10
0.164083
 20
2.524341
 40
0.0625
 50
28.132174
 51
90.0
  0
LINE
  8
MOULD-NEW
 10
0.219199
 11
0.33449
 20
2.55381
 21
2.338182
  0
LINE
  8
CONSTRUCTION
 10
0.152615
 11
0.10065
 20
-1.038482
 21
-1.166909
  0
LINE
  8
CONSTRUCTION
 10
0.10065
 11
0.20458
 20
-1.166909
 21
-1.166909
  0
LINE
  8
CONSTRUCTION
 10
0.20458
 11
0.152615
 20
-1.166909
 21
-1.038482
  0
LINE
  8
CONSTRUCTION
 10
0.152615
 11
0.559547
 20
-1.038482
 21
-1.03848
  0
LINE
  8
CONSTRUCTION
 10
0.559547
 11
0.507582
 20
-1.03848
 21
-1.166908
  0
LINE
  8
CONSTRUCTION
 10
0.507582
 11
0.611512
 20
-1.166908
 21
-1.166908
  0
LINE
  8
CONSTRUCTION
 10
0.611512
 11
0.559547
 20
-1.166908
 21
-1.03848
  0
LINE
  8
CONSTRUCTION
 10
0.559547
 11
0.966478
 20
-1.03848
 21
-1.03848
  0
LINE
  8
CONSTRUCTION
 10
0.966478
 11
0.914513
 20
-1.03848
 21
-1.166908
  0
LINE
  8
CONSTRUCTION
 10
0.914513
 11
1.018442
 20
-1.166908
 21
-1.166908
  0
LINE
  8
CONSTRUCTION
 10
1.018442
 11
0.966478
 20
-1.166908
 21
-1.03848
  0
LINE
  8
CONSTRUCTION
 10
0.966478
 11
1.373408
 20
-1.03848
 21
-1.03848
  0
LINE
  8
CONSTRUCTION
 10
1.373408
 11
1.321443
 20
-1.03848
 21
-1.166908
  0
LINE
  8
CONSTRUCTION
 10
1.321443
 11
1.425373
 20
-1.166908
 21
-1.166908
  0
LINE
  8
CONSTRUCTION
 10
1.425373
 11
1.373408
 20
-1.166908
 21
-1.03848
  0
LINE
  8
CONSTRUCTION
 10
1.373408
 11
1.780281
 20
-1.03848
 21
-1.038482
  0
LINE
  8
CONSTRUCTION
 10
1.780281
 11
1.728316
 20
-1.038482
 21
-1.166909
  0
LINE
  8
CONSTRUCTION
 10
1.728316
 11
1.832246
 20
-1.166909
 21
-1.166909
  0
LINE
  8
CONSTRUCTION
 10
1.832246
 11
1.780281
 20
-1.166909
 21
-1.038482
  0
LINE
  8
CONSTRUCTION
 10
0.0
 11
4.0
 20
-1.561751
 21
-1.561751
  0
TEXT
  8
TEXT
 10
0.1
 20
-1.8
 30
0.0
 40
0.1
 50
0.0
  1
Phone: (406) 248-5010    Website: www.dovetailmt.com
  0
TEXT
  8
TEXT
 10
1.092458
 20
-1.640461
 30
0.0
 40
0.07
 50
0.0
  1
Established 1979
  0
TEXT
  8
TEXT
 10
2.276036
 20
-1.551751
 30
0.0
 40
0.099
 50
0.0
  1
& MILLWORK INC.
  0
TEXT
  8
TEXT
 10
0.10065
 20
-1.405784
 30
0.0
 40
0.224
 50
0.0
  1
DOVETAIL DESIGNS
  0
TEXT
  8
TEXT
 10
0.0
 20
-0.5
 30
0.0
 40
0.1
 50
0.0
  1
3/4"x2-3/4"
  0
TEXT
  8
TEXT
 10
0.0
 20
-0.25
 30
0.0
 40
0.15625
 50
0.0
  1
BC704
  0
ENDSEC
  0
EOF
