  0
SECTION
  2
ENTITIES
  0
ARC
  8
APS_GEOMETRY
 10
0.317528
 20
1.3125
 40
0.03125
 50
10.0
 51
90.0
  0
LINE
  8
APS_GEOMETRY
 10
0.317528
 11
0.21875
 20
1.34375
 21
1.34375
  0
ARC
  8
APS_GEOMETRY
 10
0.21875
 20
1.375
 40
0.03125
 50
180.0
 51
270.0
  0
LINE
  8
APS_GEOMETRY
 10
0.1875
 11
0.1875
 20
1.375
 21
1.625
  0
LINE
  8
APS_GEOMETRY
 10
0.1875
 11
0.0
 20
1.625
 21
1.625
  0
LINE
  8
APS_GEOMETRY
 10
0.0
 11
0.0
 20
1.625
 21
0.0
  0
LINE
  8
APS_GEOMETRY
 10
0.0
 11
0.6875
 20
0.0
 21
0.0
  0
LINE
  8
APS_GEOMETRY
 10
0.6875
 11
0.6875
 20
0.0
 21
0.15625
  0
ARC
  8
APS_GEOMETRY
 10
0.6875
 20
0.340627
 40
0.184377
 50
270.0
 51
299.663401
  0
ARC
  8
APS_GEOMETRY
 10
0.643874
 20
0.417224
 40
0.272527
 50
299.663574
 51
323.972798
  0
ARC
  8
APS_GEOMETRY
 10
0.575048
 20
0.467283
 40
0.357632
 50
323.972352
 51
343.234979
  0
ARC
  8
APS_GEOMETRY
 10
0.466435
 20
0.499999
 40
0.471065
 50
343.235361
 51
0.0001
  0
ARC
  8
APS_GEOMETRY
 10
0.598238
 20
0.5
 40
0.339262
 50
0.0
 51
31.705369
  0
ARC
  8
APS_GEOMETRY
 10
0.268182
 20
0.296109
 40
0.727216
 50
31.705499
 51
50.24938
  0
LINE
  8
APS_GEOMETRY
 10
0.733199
 11
0.563769
 20
0.855218
 21
0.974509
  0
ARC
  8
APS_GEOMETRY
 10
0.889945
 20
1.420604
 40
0.552623
 50
212.109649
 51
233.826457
  0
ARC
  8
APS_GEOMETRY
 10
0.874049
 20
1.410629
 40
0.533856
 50
189.999984
 51
212.109702
  0
LINE
  8
CONSTRUCTION
 10
0.152615
 11
0.10065
 20
-1.038482
 21
-1.166909
  0
LINE
  8
CONSTRUCTION
 10
0.10065
 11
0.20458
 20
-1.166909
 21
-1.166909
  0
LINE
  8
CONSTRUCTION
 10
0.20458
 11
0.152615
 20
-1.166909
 21
-1.038482
  0
LINE
  8
CONSTRUCTION
 10
0.152615
 11
0.559547
 20
-1.038482
 21
-1.03848
  0
LINE
  8
CONSTRUCTION
 10
0.559547
 11
0.507582
 20
-1.03848
 21
-1.166908
  0
LINE
  8
CONSTRUCTION
 10
0.507582
 11
0.611512
 20
-1.166908
 21
-1.166908
  0
LINE
  8
CONSTRUCTION
 10
0.611512
 11
0.559547
 20
-1.166908
 21
-1.03848
  0
LINE
  8
CONSTRUCTION
 10
0.559547
 11
0.966478
 20
-1.03848
 21
-1.03848
  0
LINE
  8
CONSTRUCTION
 10
0.966478
 11
0.914513
 20
-1.03848
 21
-1.166908
  0
LINE
  8
CONSTRUCTION
 10
0.914513
 11
1.018442
 20
-1.166908
 21
-1.166908
  0
LINE
  8
CONSTRUCTION
 10
1.018442
 11
0.966478
 20
-1.166908
 21
-1.03848
  0
LINE
  8
CONSTRUCTION
 10
0.966478
 11
1.373408
 20
-1.03848
 21
-1.03848
  0
LINE
  8
CONSTRUCTION
 10
1.373408
 11
1.321443
 20
-1.03848
 21
-1.166908
  0
LINE
  8
CONSTRUCTION
 10
1.321443
 11
1.425373
 20
-1.166908
 21
-1.166908
  0
LINE
  8
CONSTRUCTION
 10
1.425373
 11
1.373408
 20
-1.166908
 21
-1.03848
  0
LINE
  8
CONSTRUCTION
 10
1.373408
 11
1.780281
 20
-1.03848
 21
-1.038482
  0
LINE
  8
CONSTRUCTION
 10
1.780281
 11
1.728316
 20
-1.038482
 21
-1.166909
  0
LINE
  8
CONSTRUCTION
 10
1.728316
 11
1.832246
 20
-1.166909
 21
-1.166909
  0
LINE
  8
CONSTRUCTION
 10
1.832246
 11
1.780281
 20
-1.166909
 21
-1.038482
  0
LINE
  8
CONSTRUCTION
 10
0.0
 11
4.0
 20
-1.561751
 21
-1.561751
  0
TEXT
  8
TEXT
 10
0.1
 20
-1.8
 30
0.0
 40
0.1
 50
0.0
  1
Phone: (406) 248-5010    Website: www.dovetailmt.com
  0
TEXT
  8
TEXT
 10
1.092458
 20
-1.640461
 30
0.0
 40
0.07
 50
0.0
  1
Established 1979
  0
TEXT
  8
TEXT
 10
2.276036
 20
-1.551751
 30
0.0
 40
0.099
 50
0.0
  1
& MILLWORK INC.
  0
TEXT
  8
TEXT
 10
0.10065
 20
-1.405784
 30
0.0
 40
0.224
 50
0.0
  1
DOVETAIL DESIGNS
  0
TEXT
  8
TEXT
 10
0.0
 20
-0.25
 30
0.0
 40
0.15625
 50
0.0
  1
BC121
  0
TEXT
  8
TEXT
 10
0.0
 20
-0.5
 30
0.0
 40
0.1
 50
0.0
  1
15/16"x1-5/8"
  0
ENDSEC
  0
EOF
