  0
SECTION
  2
ENTITIES
  0
ARC
  8
MOULD-NEW
 10
1.015625
 20
0.109375
 40
0.109375
 50
118.955024
 51
180.0
  0
LINE
  8
MOULD-NEW
 10
0.90625
 11
0.90625
 20
0.109375
 21
0.0
  0
LINE
  8
MOULD-NEW
 10
0.90625
 11
0.0
 20
0.0
 21
0.0
  0
LINE
  8
MOULD-NEW
 10
0.0
 11
0.0
 20
0.0
 21
1.875
  0
LINE
  8
MOULD-NEW
 10
0.0
 11
0.203125
 20
1.875
 21
1.875
  0
LINE
  8
MOULD-NEW
 10
0.203125
 11
0.203125
 20
1.875
 21
1.765625
  0
LINE
  8
MOULD-NEW
 10
0.203125
 11
0.20388
 20
1.765625
 21
1.749227
  0
LINE
  8
MOULD-NEW
 10
0.20388
 11
0.206124
 20
1.749227
 21
1.733298
  0
LINE
  8
MOULD-NEW
 10
0.206124
 11
0.209823
 20
1.733298
 21
1.717844
  0
LINE
  8
MOULD-NEW
 10
0.209823
 11
0.214943
 20
1.717844
 21
1.702868
  0
LINE
  8
MOULD-NEW
 10
0.214943
 11
0.221451
 20
1.702868
 21
1.688378
  0
LINE
  8
MOULD-NEW
 10
0.221451
 11
0.229312
 20
1.688378
 21
1.674377
  0
LINE
  8
MOULD-NEW
 10
0.229312
 11
0.248963
 20
1.674377
 21
1.647868
  0
LINE
  8
MOULD-NEW
 10
0.248963
 11
0.273626
 20
1.647868
 21
1.623383
  0
LINE
  8
MOULD-NEW
 10
0.273626
 11
0.303033
 20
1.623383
 21
1.600965
  0
LINE
  8
MOULD-NEW
 10
0.303033
 11
0.336914
 20
1.600965
 21
1.580656
  0
LINE
  8
MOULD-NEW
 10
0.336914
 11
0.375
 20
1.580656
 21
1.5625
  0
LINE
  8
MOULD-NEW
 10
0.375
 11
0.517358
 20
1.5625
 21
1.509796
  0
LINE
  8
MOULD-NEW
 10
0.517358
 11
0.545019
 20
1.509796
 21
1.496288
  0
LINE
  8
MOULD-NEW
 10
0.545019
 11
0.556244
 20
1.496288
 21
1.48907
  0
LINE
  8
MOULD-NEW
 10
0.556244
 11
0.565388
 20
1.48907
 21
1.481441
  0
LINE
  8
MOULD-NEW
 10
0.565388
 11
0.569099
 20
1.481441
 21
1.477449
  0
LINE
  8
MOULD-NEW
 10
0.569099
 11
0.572194
 20
1.477449
 21
1.473326
  0
LINE
  8
MOULD-NEW
 10
0.572194
 11
0.574639
 20
1.473326
 21
1.469063
  0
LINE
  8
MOULD-NEW
 10
0.574639
 11
0.576404
 20
1.469063
 21
1.46465
  0
LINE
  8
MOULD-NEW
 10
0.576404
 11
0.577455
 20
1.46465
 21
1.460078
  0
LINE
  8
MOULD-NEW
 10
0.577455
 11
0.577761
 20
1.460078
 21
1.455337
  0
LINE
  8
MOULD-NEW
 10
0.577761
 11
0.577289
 20
1.455337
 21
1.450419
  0
LINE
  8
MOULD-NEW
 10
0.577289
 11
0.576007
 20
1.450419
 21
1.445313
  0
LINE
  8
MOULD-NEW
 10
0.576007
 11
0.574171
 20
1.445313
 21
1.440609
  0
LINE
  8
MOULD-NEW
 10
0.574171
 11
0.571716
 20
1.440609
 21
1.435785
  0
LINE
  8
MOULD-NEW
 10
0.571716
 11
0.565151
 20
1.435785
 21
1.425912
  0
LINE
  8
MOULD-NEW
 10
0.565151
 11
0.546768
 20
1.425912
 21
1.406243
  0
LINE
  8
MOULD-NEW
 10
0.546768
 11
0.524002
 20
1.406243
 21
1.38853
  0
LINE
  8
MOULD-NEW
 10
0.524002
 11
0.5
 20
1.38853
 21
1.375
  0
LINE
  8
MOULD-NEW
 10
0.5
 11
0.5
 20
1.375
 21
1.28125
  0
LINE
  8
MOULD-NEW
 10
0.5
 11
0.569466
 20
1.28125
 21
1.278108
  0
LINE
  8
MOULD-NEW
 10
0.569466
 11
0.639215
 20
1.278108
 21
1.26871
  0
LINE
  8
MOULD-NEW
 10
0.639215
 11
0.70839
 20
1.26871
 21
1.253099
  0
LINE
  8
MOULD-NEW
 10
0.70839
 11
0.776133
 20
1.253099
 21
1.231317
  0
LINE
  8
MOULD-NEW
 10
0.776133
 11
0.841586
 20
1.231317
 21
1.203407
  0
LINE
  8
MOULD-NEW
 10
0.841586
 11
0.903891
 20
1.203407
 21
1.169411
  0
LINE
  8
MOULD-NEW
 10
0.903891
 11
0.96219
 20
1.169411
 21
1.129372
  0
LINE
  8
MOULD-NEW
 10
0.96219
 11
1.015625
 20
1.129372
 21
1.083333
  0
LINE
  8
MOULD-NEW
 10
1.015625
 11
1.053441
 20
1.083333
 21
1.043262
  0
LINE
  8
MOULD-NEW
 10
1.053441
 11
1.087372
 20
1.043262
 21
0.99987
  0
LINE
  8
MOULD-NEW
 10
1.087372
 11
1.117029
 20
0.99987
 21
0.953473
  0
LINE
  8
MOULD-NEW
 10
1.117029
 11
1.142019
 20
0.953473
 21
0.904389
  0
LINE
  8
MOULD-NEW
 10
1.142019
 11
1.161953
 20
0.904389
 21
0.852933
  0
LINE
  8
MOULD-NEW
 10
1.161953
 11
1.176438
 20
0.852933
 21
0.799422
  0
LINE
  8
MOULD-NEW
 10
1.176438
 11
1.185084
 20
0.799422
 21
0.744172
  0
LINE
  8
MOULD-NEW
 10
1.185084
 11
1.1875
 20
0.744172
 21
0.6875
  0
LINE
  8
MOULD-NEW
 10
1.1875
 11
1.18414
 20
0.6875
 21
0.636231
  0
LINE
  8
MOULD-NEW
 10
1.18414
 11
1.175552
 20
0.636231
 21
0.585168
  0
LINE
  8
MOULD-NEW
 10
1.175552
 11
1.161762
 20
0.585168
 21
0.535393
  0
LINE
  8
MOULD-NEW
 10
1.161762
 11
1.142794
 20
0.535393
 21
0.48799
  0
LINE
  8
MOULD-NEW
 10
1.142794
 11
1.118671
 20
0.48799
 21
0.444041
  0
LINE
  8
MOULD-NEW
 10
1.118671
 11
1.089419
 20
0.444041
 21
0.40463
  0
LINE
  8
MOULD-NEW
 10
1.089419
 11
1.055062
 20
0.40463
 21
0.370838
  0
LINE
  8
MOULD-NEW
 10
1.055062
 11
1.035977
 20
0.370838
 21
0.356389
  0
LINE
  8
MOULD-NEW
 10
1.035977
 11
1.015625
 20
0.356389
 21
0.34375
  0
LINE
  8
MOULD-NEW
 10
1.015625
 11
1.015625
 20
0.34375
 21
0.234375
  0
LINE
  8
MOULD-NEW
 10
1.015625
 11
0.962674
 20
0.234375
 21
0.205078
  0
LINE
  8
CONSTRUCTION
 10
0.152615
 11
0.10065
 20
-1.038482
 21
-1.166909
  0
LINE
  8
CONSTRUCTION
 10
0.10065
 11
0.20458
 20
-1.166909
 21
-1.166909
  0
LINE
  8
CONSTRUCTION
 10
0.20458
 11
0.152615
 20
-1.166909
 21
-1.038482
  0
LINE
  8
CONSTRUCTION
 10
0.152615
 11
0.559547
 20
-1.038482
 21
-1.03848
  0
LINE
  8
CONSTRUCTION
 10
0.559547
 11
0.507582
 20
-1.03848
 21
-1.166908
  0
LINE
  8
CONSTRUCTION
 10
0.507582
 11
0.611512
 20
-1.166908
 21
-1.166908
  0
LINE
  8
CONSTRUCTION
 10
0.611512
 11
0.559547
 20
-1.166908
 21
-1.03848
  0
LINE
  8
CONSTRUCTION
 10
0.559547
 11
0.966478
 20
-1.03848
 21
-1.03848
  0
LINE
  8
CONSTRUCTION
 10
0.966478
 11
0.914513
 20
-1.03848
 21
-1.166908
  0
LINE
  8
CONSTRUCTION
 10
0.914513
 11
1.018442
 20
-1.166908
 21
-1.166908
  0
LINE
  8
CONSTRUCTION
 10
1.018442
 11
0.966478
 20
-1.166908
 21
-1.03848
  0
LINE
  8
CONSTRUCTION
 10
0.966478
 11
1.373408
 20
-1.03848
 21
-1.03848
  0
LINE
  8
CONSTRUCTION
 10
1.373408
 11
1.321443
 20
-1.03848
 21
-1.166908
  0
LINE
  8
CONSTRUCTION
 10
1.321443
 11
1.425373
 20
-1.166908
 21
-1.166908
  0
LINE
  8
CONSTRUCTION
 10
1.425373
 11
1.373408
 20
-1.166908
 21
-1.03848
  0
LINE
  8
CONSTRUCTION
 10
1.373408
 11
1.780281
 20
-1.03848
 21
-1.038482
  0
LINE
  8
CONSTRUCTION
 10
1.780281
 11
1.728316
 20
-1.038482
 21
-1.166909
  0
LINE
  8
CONSTRUCTION
 10
1.728316
 11
1.832246
 20
-1.166909
 21
-1.166909
  0
LINE
  8
CONSTRUCTION
 10
1.832246
 11
1.780281
 20
-1.166909
 21
-1.038482
  0
LINE
  8
CONSTRUCTION
 10
0.0
 11
4.0
 20
-1.561751
 21
-1.561751
  0
TEXT
  8
TEXT
 10
0.1
 20
-1.8
 30
0.0
 40
0.1
 50
0.0
  1
Phone: (406) 248-5010    Website: www.dovetailmt.com
  0
TEXT
  8
TEXT
 10
1.092458
 20
-1.640461
 30
0.0
 40
0.07
 50
0.0
  1
Established 1979
  0
TEXT
  8
TEXT
 10
2.276036
 20
-1.551751
 30
0.0
 40
0.099
 50
0.0
  1
& MILLWORK INC.
  0
TEXT
  8
TEXT
 10
0.10065
 20
-1.405784
 30
0.0
 40
0.224
 50
0.0
  1
DOVETAIL DESIGNS
  0
TEXT
  8
TEXT
 10
0.0
 20
-0.5
 30
0.0
 40
0.1
 50
0.0
  1
1-3/16"x1-7/8"
  0
TEXT
  8
TEXT
 10
0.0
 20
-0.25
 30
0.0
 40
0.15625
 50
0.0
  1
BC119
  0
ENDSEC
  0
EOF
