  0
SECTION
  2
ENTITIES
  0
ARC
  8
MOULD-NEW
 10
0.8125
 20
0.46875
 40
0.0625
 50
0.0
 51
90.0
  0
LINE
  8
MOULD-NEW
 10
0.8125
 11
0.666667
 20
0.53125
 21
0.53125
  0
LINE
  8
MOULD-NEW
 10
0.666667
 11
0.72153
 20
0.53125
 21
0.588401
  0
LINE
  8
MOULD-NEW
 10
0.72153
 11
0.76818
 20
0.588401
 21
0.654538
  0
LINE
  8
MOULD-NEW
 10
0.76818
 11
0.786523
 20
0.654538
 21
0.690064
  0
LINE
  8
MOULD-NEW
 10
0.786523
 11
0.800531
 20
0.690064
 21
0.72674
  0
LINE
  8
MOULD-NEW
 10
0.800531
 11
0.809443
 20
0.72674
 21
0.764202
  0
LINE
  8
MOULD-NEW
 10
0.809443
 11
0.8125
 20
0.764202
 21
0.802083
  0
LINE
  8
MOULD-NEW
 10
0.8125
 11
0.809371
 20
0.802083
 21
0.838882
  0
LINE
  8
MOULD-NEW
 10
0.809371
 11
0.80065
 20
0.838882
 21
0.87531
  0
LINE
  8
MOULD-NEW
 10
0.80065
 11
0.786977
 20
0.87531
 21
0.910947
  0
LINE
  8
MOULD-NEW
 10
0.786977
 11
0.76899
 20
0.910947
 21
0.94537
  0
LINE
  8
MOULD-NEW
 10
0.76899
 11
0.747326
 20
0.94537
 21
0.978159
  0
LINE
  8
MOULD-NEW
 10
0.747326
 11
0.722626
 20
0.978159
 21
1.008891
  0
LINE
  8
MOULD-NEW
 10
0.722626
 11
0.666667
 20
1.008891
 21
1.0625
  0
LINE
  8
MOULD-NEW
 10
0.666667
 11
0.46875
 20
1.0625
 21
1.1875
  0
LINE
  8
MOULD-NEW
 10
0.46875
 11
0.393135
 20
1.1875
 21
1.250896
  0
LINE
  8
MOULD-NEW
 10
0.393135
 11
0.359272
 20
1.250896
 21
1.287755
  0
LINE
  8
MOULD-NEW
 10
0.359272
 11
0.329768
 20
1.287755
 21
1.327266
  0
LINE
  8
MOULD-NEW
 10
0.329768
 11
0.305918
 20
1.327266
 21
1.368837
  0
LINE
  8
MOULD-NEW
 10
0.305918
 11
0.289018
 20
1.368837
 21
1.411877
  0
LINE
  8
MOULD-NEW
 10
0.289018
 11
0.283579
 20
1.411877
 21
1.433763
  0
LINE
  8
MOULD-NEW
 10
0.283579
 11
0.280363
 20
1.433763
 21
1.455795
  0
LINE
  8
MOULD-NEW
 10
0.280363
 11
0.279533
 20
1.455795
 21
1.477899
  0
LINE
  8
MOULD-NEW
 10
0.279533
 11
0.28125
 20
1.477899
 21
1.5
  0
LINE
  8
MOULD-NEW
 10
0.28125
 11
0.289318
 20
1.5
 21
1.534703
  0
LINE
  8
MOULD-NEW
 10
0.289318
 11
0.303366
 20
1.534703
 21
1.568577
  0
LINE
  8
MOULD-NEW
 10
0.303366
 11
0.322599
 20
1.568577
 21
1.600987
  0
LINE
  8
MOULD-NEW
 10
0.322599
 11
0.346223
 20
1.600987
 21
1.631294
  0
LINE
  8
MOULD-NEW
 10
0.346223
 11
0.373444
 20
1.631294
 21
1.658861
  0
LINE
  8
MOULD-NEW
 10
0.373444
 11
0.403468
 20
1.658861
 21
1.683051
  0
LINE
  8
MOULD-NEW
 10
0.403468
 11
0.435501
 20
1.683051
 21
1.703226
  0
LINE
  8
MOULD-NEW
 10
0.435501
 11
0.46875
 20
1.703226
 21
1.71875
  0
LINE
  8
MOULD-NEW
 10
0.46875
 11
0.25
 20
1.71875
 21
2.125
  0
LINE
  8
MOULD-NEW
 10
0.25
 11
0.0
 20
2.125
 21
2.125
  0
LINE
  8
MOULD-NEW
 10
0.0
 11
0.0
 20
2.125
 21
0.0
  0
LINE
  8
MOULD-NEW
 10
0.0
 11
0.875
 20
0.0
 21
0.0
  0
LINE
  8
MOULD-NEW
 10
0.875
 11
0.875
 20
0.0
 21
0.46875
  0
LINE
  8
CONSTRUCTION
 10
0.152615
 11
0.10065
 20
-1.038482
 21
-1.166909
  0
LINE
  8
CONSTRUCTION
 10
0.10065
 11
0.20458
 20
-1.166909
 21
-1.166909
  0
LINE
  8
CONSTRUCTION
 10
0.20458
 11
0.152615
 20
-1.166909
 21
-1.038482
  0
LINE
  8
CONSTRUCTION
 10
0.152615
 11
0.559547
 20
-1.038482
 21
-1.03848
  0
LINE
  8
CONSTRUCTION
 10
0.559547
 11
0.507582
 20
-1.03848
 21
-1.166908
  0
LINE
  8
CONSTRUCTION
 10
0.507582
 11
0.611512
 20
-1.166908
 21
-1.166908
  0
LINE
  8
CONSTRUCTION
 10
0.611512
 11
0.559547
 20
-1.166908
 21
-1.03848
  0
LINE
  8
CONSTRUCTION
 10
0.559547
 11
0.966478
 20
-1.03848
 21
-1.03848
  0
LINE
  8
CONSTRUCTION
 10
0.966478
 11
0.914513
 20
-1.03848
 21
-1.166908
  0
LINE
  8
CONSTRUCTION
 10
0.914513
 11
1.018442
 20
-1.166908
 21
-1.166908
  0
LINE
  8
CONSTRUCTION
 10
1.018442
 11
0.966478
 20
-1.166908
 21
-1.03848
  0
LINE
  8
CONSTRUCTION
 10
0.966478
 11
1.373408
 20
-1.03848
 21
-1.03848
  0
LINE
  8
CONSTRUCTION
 10
1.373408
 11
1.321443
 20
-1.03848
 21
-1.166908
  0
LINE
  8
CONSTRUCTION
 10
1.321443
 11
1.425373
 20
-1.166908
 21
-1.166908
  0
LINE
  8
CONSTRUCTION
 10
1.425373
 11
1.373408
 20
-1.166908
 21
-1.03848
  0
LINE
  8
CONSTRUCTION
 10
1.373408
 11
1.780281
 20
-1.03848
 21
-1.038482
  0
LINE
  8
CONSTRUCTION
 10
1.780281
 11
1.728316
 20
-1.038482
 21
-1.166909
  0
LINE
  8
CONSTRUCTION
 10
1.728316
 11
1.832246
 20
-1.166909
 21
-1.166909
  0
LINE
  8
CONSTRUCTION
 10
1.832246
 11
1.780281
 20
-1.166909
 21
-1.038482
  0
LINE
  8
CONSTRUCTION
 10
0.0
 11
4.0
 20
-1.561751
 21
-1.561751
  0
TEXT
  8
TEXT
 10
0.1
 20
-1.8
 30
0.0
 40
0.1
 50
0.0
  1
Phone: (406) 248-5010    Website: www.dovetailmt.com
  0
TEXT
  8
TEXT
 10
1.092458
 20
-1.640461
 30
0.0
 40
0.07
 50
0.0
  1
Established 1979
  0
TEXT
  8
TEXT
 10
2.276036
 20
-1.551751
 30
0.0
 40
0.099
 50
0.0
  1
& MILLWORK INC.
  0
TEXT
  8
TEXT
 10
0.10065
 20
-1.405784
 30
0.0
 40
0.224
 50
0.0
  1
DOVETAIL DESIGNS
  0
TEXT
  8
TEXT
 10
0.0
 20
-0.25
 30
0.0
 40
0.15625
 50
0.0
  1
BC117
  0
TEXT
  8
TEXT
 10
0.0
 20
-0.5
 30
0.0
 40
0.1
 50
0.0
  1
7/8"x2-1/8"
  0
ENDSEC
  0
EOF
