  0
SECTION
  2
ENTITIES
  0
ARC
  8
APS_GEOMETRY
 10
0.225883
 20
0.882133
 40
0.163539
 50
182.5
 51
267.5
  0
LINE
  8
APS_GEOMETRY
 10
0.21875
 11
0.21875
 20
0.71875
 21
0.65625
  0
ARC
  8
APS_GEOMETRY
 10
-3.224433
 20
-10.990421
 40
12.144977
 50
73.28666
 51
73.530388
  0
ARC
  8
APS_GEOMETRY
 10
-0.561262
 20
-2.12102
 40
2.884374
 50
72.554028
 51
73.286129
  0
ARC
  8
APS_GEOMETRY
 10
-0.25592
 20
-1.14945
 40
1.865953
 50
69.616715
 51
72.554445
  0
ARC
  8
APS_GEOMETRY
 10
0.063774
 20
-0.289046
 40
0.948075
 50
64.720506
 51
69.616643
  0
ARC
  8
APS_GEOMETRY
 10
0.152181
 20
-0.101853
 40
0.741056
 50
49.174522
 51
64.720716
  0
ARC
  8
APS_GEOMETRY
 10
0.437101
 20
0.227936
 40
0.305235
 50
19.773865
 51
49.17411
  0
ARC
  8
APS_GEOMETRY
 10
0.546734
 20
0.267348
 40
0.188733
 50
337.566367
 51
19.774376
  0
ARC
  8
APS_GEOMETRY
 10
0.540815
 20
0.269795
 40
0.195137
 50
295.557243
 51
337.565524
  0
LINE
  8
APS_GEOMETRY
 10
0.625
 11
0.625
 20
0.093751
 21
0.0
  0
LINE
  8
APS_GEOMETRY
 10
0.625
 11
0.0
 20
0.0
 21
0.0
  0
LINE
  8
APS_GEOMETRY
 10
0.0
 11
0.0
 20
0.0
 21
0.875
  0
LINE
  8
APS_GEOMETRY
 10
0.0
 11
0.0625
 20
0.875
 21
0.875
  0
LINE
  8
CONSTRUCTION
 10
0.152615
 11
0.10065
 20
-1.038482
 21
-1.166909
  0
LINE
  8
CONSTRUCTION
 10
0.10065
 11
0.20458
 20
-1.166909
 21
-1.166909
  0
LINE
  8
CONSTRUCTION
 10
0.20458
 11
0.152615
 20
-1.166909
 21
-1.038482
  0
LINE
  8
CONSTRUCTION
 10
0.152615
 11
0.559547
 20
-1.038482
 21
-1.03848
  0
LINE
  8
CONSTRUCTION
 10
0.559547
 11
0.507582
 20
-1.03848
 21
-1.166908
  0
LINE
  8
CONSTRUCTION
 10
0.507582
 11
0.611512
 20
-1.166908
 21
-1.166908
  0
LINE
  8
CONSTRUCTION
 10
0.611512
 11
0.559547
 20
-1.166908
 21
-1.03848
  0
LINE
  8
CONSTRUCTION
 10
0.559547
 11
0.966478
 20
-1.03848
 21
-1.03848
  0
LINE
  8
CONSTRUCTION
 10
0.966478
 11
0.914513
 20
-1.03848
 21
-1.166908
  0
LINE
  8
CONSTRUCTION
 10
0.914513
 11
1.018442
 20
-1.166908
 21
-1.166908
  0
LINE
  8
CONSTRUCTION
 10
1.018442
 11
0.966478
 20
-1.166908
 21
-1.03848
  0
LINE
  8
CONSTRUCTION
 10
0.966478
 11
1.373408
 20
-1.03848
 21
-1.03848
  0
LINE
  8
CONSTRUCTION
 10
1.373408
 11
1.321443
 20
-1.03848
 21
-1.166908
  0
LINE
  8
CONSTRUCTION
 10
1.321443
 11
1.425373
 20
-1.166908
 21
-1.166908
  0
LINE
  8
CONSTRUCTION
 10
1.425373
 11
1.373408
 20
-1.166908
 21
-1.03848
  0
LINE
  8
CONSTRUCTION
 10
1.373408
 11
1.780281
 20
-1.03848
 21
-1.038482
  0
LINE
  8
CONSTRUCTION
 10
1.780281
 11
1.728316
 20
-1.038482
 21
-1.166909
  0
LINE
  8
CONSTRUCTION
 10
1.728316
 11
1.832246
 20
-1.166909
 21
-1.166909
  0
LINE
  8
CONSTRUCTION
 10
1.832246
 11
1.780281
 20
-1.166909
 21
-1.038482
  0
LINE
  8
CONSTRUCTION
 10
0.0
 11
4.0
 20
-1.561751
 21
-1.561751
  0
TEXT
  8
TEXT
 10
0.1
 20
-1.8
 30
0.0
 40
0.1
 50
0.0
  1
Phone: (406) 248-5010    Website: www.dovetailmt.com
  0
TEXT
  8
TEXT
 10
1.092458
 20
-1.640461
 30
0.0
 40
0.07
 50
0.0
  1
Established 1979
  0
TEXT
  8
TEXT
 10
2.276036
 20
-1.551751
 30
0.0
 40
0.099
 50
0.0
  1
& MILLWORK INC.
  0
TEXT
  8
TEXT
 10
0.10065
 20
-1.405784
 30
0.0
 40
0.224
 50
0.0
  1
DOVETAIL DESIGNS
  0
TEXT
  8
TEXT
 10
0.0
 20
-0.5
 30
0.0
 40
0.1
 50
0.0
  1
3/4"x7/8"
  0
TEXT
  8
TEXT
 10
0.0
 20
-0.25
 30
0.0
 40
0.15625
 50
0.0
  1
BC103
  0
ENDSEC
  0
EOF
