  0
SECTION
  2
ENTITIES
  0
ARC
  8
MOULD-NEW
 10
0.71875
 20
0.416294
 40
0.03125
 50
305.0
 51
0.0
  0
LINE
  8
MOULD-NEW
 10
0.75
 11
0.75
 20
0.416294
 21
3.146206
  0
ARC
  8
MOULD-NEW
 10
0.71875
 20
3.146206
 40
0.03125
 50
0.0
 51
55.0
  0
LINE
  8
MOULD-NEW
 10
0.736674
 11
0.625
 20
3.171805
 21
3.25
  0
LINE
  8
MOULD-NEW
 10
0.625
 11
0.468214
 20
3.25
 21
3.25
  0
ARC
  8
MOULD-NEW
 10
0.468214
 20
3.265625
 40
0.015625
 50
182.0
 51
270.0
  0
LINE
  8
MOULD-NEW
 10
0.452599
 11
0.44765
 20
3.26508
 21
3.42242
  0
ARC
  8
MOULD-NEW
 10
0.432035
 20
3.421875
 40
0.015625
 50
1.998882
 51
90.001862
  0
LINE
  8
MOULD-NEW
 10
0.432034
 11
0.255466
 20
3.4375
 21
3.4375
  0
ARC
  8
MOULD-NEW
 10
0.255466
 20
3.421875
 40
0.015625
 50
90.0
 51
178.0
  0
LINE
  8
MOULD-NEW
 10
0.239851
 11
0.234902
 20
3.42242
 21
3.26508
  0
ARC
  8
MOULD-NEW
 10
0.219287
 20
3.265625
 40
0.015625
 50
269.998138
 51
358.001118
  0
LINE
  8
MOULD-NEW
 10
0.219286
 11
0.0
 20
3.25
 21
3.25
  0
LINE
  8
MOULD-NEW
 10
0.0
 11
0.0
 20
3.25
 21
0.0
  0
LINE
  8
MOULD-NEW
 10
0.0
 11
0.204197
 20
0.0
 21
0.0
  0
ARC
  8
MOULD-NEW
 10
0.204197
 20
0.03125
 40
0.03125
 50
270.0
 51
358.0
  0
LINE
  8
MOULD-NEW
 10
0.235428
 11
0.240396
 20
0.030159
 21
0.188045
  0
ARC
  8
MOULD-NEW
 10
0.256011
 20
0.1875
 40
0.015625
 50
89.998138
 51
178.001118
  0
LINE
  8
MOULD-NEW
 10
0.256012
 11
0.431488
 20
0.203125
 21
0.203125
  0
ARC
  8
MOULD-NEW
 10
0.431488
 20
0.1875
 40
0.015625
 50
2.0
 51
90.0
  0
LINE
  8
MOULD-NEW
 10
0.447103
 11
0.452072
 20
0.188045
 21
0.030159
  0
ARC
  8
MOULD-NEW
 10
0.483303
 20
0.03125
 40
0.03125
 50
182.000717
 51
270.000092
  0
LINE
  8
MOULD-NEW
 10
0.483303
 11
0.625
 20
0.0
 21
0.0
  0
ARC
  8
MOULD-NEW
 10
0.625
 20
0.086696
 40
0.086696
 50
270.0
 51
299.23282
  0
ARC
  8
MOULD-NEW
 10
0.60628
 20
0.120147
 40
0.125029
 50
299.232558
 51
323.49277
  0
ARC
  8
MOULD-NEW
 10
0.576776
 20
0.141984
 40
0.161735
 50
323.493196
 51
342.955602
  0
ARC
  8
MOULD-NEW
 10
0.530244
 20
0.156251
 40
0.210405
 50
342.955199
 51
17.044324
  0
ARC
  8
MOULD-NEW
 10
0.576776
 20
0.170515
 40
0.161735
 50
17.044725
 51
36.507322
  0
ARC
  8
MOULD-NEW
 10
0.60628
 20
0.192353
 40
0.125029
 50
36.507092
 51
60.767026
  0
ARC
  8
MOULD-NEW
 10
0.625
 20
0.225804
 40
0.086696
 50
60.767186
 51
90.000196
  0
LINE
  8
MOULD-NEW
 10
0.625
 11
0.736674
 20
0.3125
 21
0.390695
  0
LINE
  8
CONSTRUCTION
 10
0.152615
 11
0.10065
 20
-1.038482
 21
-1.166909
  0
LINE
  8
CONSTRUCTION
 10
0.10065
 11
0.20458
 20
-1.166909
 21
-1.166909
  0
LINE
  8
CONSTRUCTION
 10
0.20458
 11
0.152615
 20
-1.166909
 21
-1.038482
  0
LINE
  8
CONSTRUCTION
 10
0.152615
 11
0.559547
 20
-1.038482
 21
-1.03848
  0
LINE
  8
CONSTRUCTION
 10
0.559547
 11
0.507582
 20
-1.03848
 21
-1.166908
  0
LINE
  8
CONSTRUCTION
 10
0.507582
 11
0.611512
 20
-1.166908
 21
-1.166908
  0
LINE
  8
CONSTRUCTION
 10
0.611512
 11
0.559547
 20
-1.166908
 21
-1.03848
  0
LINE
  8
CONSTRUCTION
 10
0.559547
 11
0.966478
 20
-1.03848
 21
-1.03848
  0
LINE
  8
CONSTRUCTION
 10
0.966478
 11
0.914513
 20
-1.03848
 21
-1.166908
  0
LINE
  8
CONSTRUCTION
 10
0.914513
 11
1.018442
 20
-1.166908
 21
-1.166908
  0
LINE
  8
CONSTRUCTION
 10
1.018442
 11
0.966478
 20
-1.166908
 21
-1.03848
  0
LINE
  8
CONSTRUCTION
 10
0.966478
 11
1.373408
 20
-1.03848
 21
-1.03848
  0
LINE
  8
CONSTRUCTION
 10
1.373408
 11
1.321443
 20
-1.03848
 21
-1.166908
  0
LINE
  8
CONSTRUCTION
 10
1.321443
 11
1.425373
 20
-1.166908
 21
-1.166908
  0
LINE
  8
CONSTRUCTION
 10
1.425373
 11
1.373408
 20
-1.166908
 21
-1.03848
  0
LINE
  8
CONSTRUCTION
 10
1.373408
 11
1.780281
 20
-1.03848
 21
-1.038482
  0
LINE
  8
CONSTRUCTION
 10
1.780281
 11
1.728316
 20
-1.038482
 21
-1.166909
  0
LINE
  8
CONSTRUCTION
 10
1.728316
 11
1.832246
 20
-1.166909
 21
-1.166909
  0
LINE
  8
CONSTRUCTION
 10
1.832246
 11
1.780281
 20
-1.166909
 21
-1.038482
  0
LINE
  8
CONSTRUCTION
 10
0.0
 11
4.0
 20
-1.561751
 21
-1.561751
  0
TEXT
  8
TEXT
 10
0.10065
 20
-1.405784
 30
0.0
 40
0.224
 50
0.0
  1
DOVETAIL DESIGNS
  0
TEXT
  8
TEXT
 10
2.276036
 20
-1.551751
 30
0.0
 40
0.099
 50
0.0
  1
& MILLWORK INC.
  0
TEXT
  8
TEXT
 10
1.092458
 20
-1.640461
 30
0.0
 40
0.07
 50
0.0
  1
Established 1979
  0
TEXT
  8
TEXT
 10
0.1
 20
-1.8
 30
0.0
 40
0.1
 50
0.0
  1
Phone: (406) 248-5010    Website: www.dovetailmt.com
  0
TEXT
  8
TEXT
 10
0.0
 20
-0.8
 30
0.0
 40
0.1
 50
0.0
  1
3-1/4"face
  0
TEXT
  8
TEXT
 10
0.0
 20
-0.65
 30
0.0
 40
0.1
 50
0.0
  1
x 3-7/16"
  0
TEXT
  8
TEXT
 10
0.0
 20
-0.5
 30
0.0
 40
0.1
 50
0.0
  1
5/8"min
  0
TEXT
  8
TEXT
 10
0.0
 20
-0.25
 30
0.0
 40
0.15625
 50
0.0
  1
BB2-1
  0
ENDSEC
  0
EOF
