  0
SECTION
  2
ENTITIES
  0
ARC
  8
MOULD-NEW
 10
0.59375
 20
2.924556
 40
0.03125
 50
0.0
 51
45.0
  0
LINE
  8
MOULD-NEW
 10
0.615847
 11
0.53125
 20
2.946653
 21
3.03125
  0
ARC
  8
MOULD-NEW
 10
0.49375
 20
3.140625
 40
0.115625
 50
288.924644
 51
71.075356
  0
LINE
  8
MOULD-NEW
 10
0.53125
 11
0.615847
 20
3.25
 21
3.334597
  0
ARC
  8
MOULD-NEW
 10
0.59375
 20
3.356694
 40
0.03125
 50
315.0
 51
0.0
  0
LINE
  8
MOULD-NEW
 10
0.625
 11
0.625
 20
3.356694
 21
4.549556
  0
ARC
  8
MOULD-NEW
 10
0.59375
 20
4.549556
 40
0.03125
 50
0.0
 51
45.0
  0
LINE
  8
MOULD-NEW
 10
0.615847
 11
0.53125
 20
4.571653
 21
4.65625
  0
ARC
  8
MOULD-NEW
 10
0.49375
 20
4.765625
 40
0.115625
 50
288.924644
 51
71.075356
  0
LINE
  8
MOULD-NEW
 10
0.53125
 11
0.421339
 20
4.875
 21
4.875
  0
ARC
  8
MOULD-NEW
 10
0.421339
 20
4.890625
 40
0.015625
 50
182.0
 51
270.0
  0
LINE
  8
MOULD-NEW
 10
0.405724
 11
0.400775
 20
4.89008
 21
5.031795
  0
ARC
  8
MOULD-NEW
 10
0.38516
 20
5.03125
 40
0.015625
 50
1.998882
 51
90.001862
  0
LINE
  8
MOULD-NEW
 10
0.385159
 11
0.239841
 20
5.046875
 21
5.046875
  0
ARC
  8
MOULD-NEW
 10
0.239841
 20
5.03125
 40
0.015625
 50
90.0
 51
178.0
  0
LINE
  8
MOULD-NEW
 10
0.224226
 11
0.219277
 20
5.031795
 21
4.89008
  0
ARC
  8
MOULD-NEW
 10
0.203662
 20
4.890625
 40
0.015625
 50
269.998138
 51
358.001118
  0
LINE
  8
MOULD-NEW
 10
0.203661
 11
0.0
 20
4.875
 21
4.875
  0
LINE
  8
MOULD-NEW
 10
0.0
 11
0.0
 20
4.875
 21
0.0
  0
LINE
  8
MOULD-NEW
 10
0.0
 11
0.188572
 20
0.0
 21
0.0
  0
ARC
  8
MOULD-NEW
 10
0.188572
 20
0.03125
 40
0.03125
 50
270.0
 51
358.0
  0
LINE
  8
MOULD-NEW
 10
0.219803
 11
0.224771
 20
0.030159
 21
0.17242
  0
ARC
  8
MOULD-NEW
 10
0.240386
 20
0.171875
 40
0.015625
 50
89.998138
 51
178.001118
  0
LINE
  8
MOULD-NEW
 10
0.240387
 11
0.384613
 20
0.1875
 21
0.1875
  0
ARC
  8
MOULD-NEW
 10
0.384613
 20
0.171875
 40
0.015625
 50
2.0
 51
90.0
  0
LINE
  8
MOULD-NEW
 10
0.400228
 11
0.405197
 20
0.17242
 21
0.030159
  0
ARC
  8
MOULD-NEW
 10
0.436428
 20
0.03125
 40
0.03125
 50
182.000717
 51
270.000092
  0
LINE
  8
MOULD-NEW
 10
0.436428
 11
0.53125
 20
0.0
 21
0.0
  0
LINE
  8
MOULD-NEW
 10
0.53125
 11
0.615847
 20
0.0
 21
0.084597
  0
ARC
  8
MOULD-NEW
 10
0.59375
 20
0.106694
 40
0.03125
 50
315.0
 51
0.0
  0
LINE
  8
MOULD-NEW
 10
0.625
 11
0.625
 20
0.106694
 21
1.299556
  0
ARC
  8
MOULD-NEW
 10
0.59375
 20
1.299556
 40
0.03125
 50
0.0
 51
45.0
  0
LINE
  8
MOULD-NEW
 10
0.615847
 11
0.53125
 20
1.321653
 21
1.40625
  0
ARC
  8
MOULD-NEW
 10
0.49375
 20
1.515625
 40
0.115625
 50
288.924644
 51
71.075356
  0
LINE
  8
MOULD-NEW
 10
0.53125
 11
0.615847
 20
1.625
 21
1.709597
  0
ARC
  8
MOULD-NEW
 10
0.59375
 20
1.731694
 40
0.03125
 50
315.0
 51
0.0
  0
LINE
  8
MOULD-NEW
 10
0.625
 11
0.625
 20
1.731694
 21
2.924556
  0
LINE
  8
CONSTRUCTION
 10
0.152615
 11
0.10065
 20
-1.038482
 21
-1.166909
  0
LINE
  8
CONSTRUCTION
 10
0.10065
 11
0.20458
 20
-1.166909
 21
-1.166909
  0
LINE
  8
CONSTRUCTION
 10
0.20458
 11
0.152615
 20
-1.166909
 21
-1.038482
  0
LINE
  8
CONSTRUCTION
 10
0.152615
 11
0.559547
 20
-1.038482
 21
-1.03848
  0
LINE
  8
CONSTRUCTION
 10
0.559547
 11
0.507582
 20
-1.03848
 21
-1.166908
  0
LINE
  8
CONSTRUCTION
 10
0.507582
 11
0.611512
 20
-1.166908
 21
-1.166908
  0
LINE
  8
CONSTRUCTION
 10
0.611512
 11
0.559547
 20
-1.166908
 21
-1.03848
  0
LINE
  8
CONSTRUCTION
 10
0.559547
 11
0.966478
 20
-1.03848
 21
-1.03848
  0
LINE
  8
CONSTRUCTION
 10
0.966478
 11
0.914513
 20
-1.03848
 21
-1.166908
  0
LINE
  8
CONSTRUCTION
 10
0.914513
 11
1.018442
 20
-1.166908
 21
-1.166908
  0
LINE
  8
CONSTRUCTION
 10
1.018442
 11
0.966478
 20
-1.166908
 21
-1.03848
  0
LINE
  8
CONSTRUCTION
 10
0.966478
 11
1.373408
 20
-1.03848
 21
-1.03848
  0
LINE
  8
CONSTRUCTION
 10
1.373408
 11
1.321443
 20
-1.03848
 21
-1.166908
  0
LINE
  8
CONSTRUCTION
 10
1.321443
 11
1.425373
 20
-1.166908
 21
-1.166908
  0
LINE
  8
CONSTRUCTION
 10
1.425373
 11
1.373408
 20
-1.166908
 21
-1.03848
  0
LINE
  8
CONSTRUCTION
 10
1.373408
 11
1.780281
 20
-1.03848
 21
-1.038482
  0
LINE
  8
CONSTRUCTION
 10
1.780281
 11
1.728316
 20
-1.038482
 21
-1.166909
  0
LINE
  8
CONSTRUCTION
 10
1.728316
 11
1.832246
 20
-1.166909
 21
-1.166909
  0
LINE
  8
CONSTRUCTION
 10
1.832246
 11
1.780281
 20
-1.166909
 21
-1.038482
  0
LINE
  8
CONSTRUCTION
 10
0.0
 11
4.0
 20
-1.561751
 21
-1.561751
  0
TEXT
  8
TEXT
 10
0.0
 20
-0.25
 30
0.0
 40
0.15625
 50
0.0
  1
BB1-3
  0
TEXT
  8
TEXT
 10
0.0
 20
-0.5
 30
0.0
 40
0.1
 50
0.0
  1
5/8"min
  0
TEXT
  8
TEXT
 10
0.0
 20
-0.65
 30
0.0
 40
0.1
 50
0.0
  1
x 5-1/16"
  0
TEXT
  8
TEXT
 10
0.0
 20
-0.8
 30
0.0
 40
0.1
 50
0.0
  1
4-7/8"face
  0
TEXT
  8
TEXT
 10
0.10065
 20
-1.405784
 30
0.0
 40
0.224
 50
0.0
  1
DOVETAIL DESIGNS
  0
TEXT
  8
TEXT
 10
2.276036
 20
-1.551751
 30
0.0
 40
0.099
 50
0.0
  1
& MILLWORK INC.
  0
TEXT
  8
TEXT
 10
1.092458
 20
-1.640461
 30
0.0
 40
0.07
 50
0.0
  1
Established 1979
  0
TEXT
  8
TEXT
 10
0.1
 20
-1.8
 30
0.0
 40
0.1
 50
0.0
  1
Phone: (406) 248-5010    Website: www.dovetailmt.com
  0
ENDSEC
  0
EOF
