  0
SECTION
  2
ENTITIES
  0
LINE
  8
APS_GEOMETRY
 10
0.0
 11
0.0
 20
4.500043
 21
3.750043
  0
LINE
  8
APS_GEOMETRY
 10
0.0
 11
0.06
 20
3.750043
 21
3.750043
  0
LINE
  8
APS_GEOMETRY
 10
0.06
 11
0.060004
 20
3.750043
 21
1.37503
  0
LINE
  8
APS_GEOMETRY
 10
0.060004
 11
0.000004
 20
1.37503
 21
1.37503
  0
LINE
  8
APS_GEOMETRY
 10
0.000004
 11
0.0
 20
1.37503
 21
0.0
  0
LINE
  8
APS_GEOMETRY
 10
0.0
 11
0.749978
 20
0.0
 21
0.0
  0
LINE
  8
APS_GEOMETRY
 10
0.749978
 11
0.749983
 20
0.0
 21
1.31503
  0
ARC
  8
APS_GEOMETRY
 10
0.689983
 20
1.31503
 40
0.06
 50
0.0
 51
90.0
  0
LINE
  8
APS_GEOMETRY
 10
0.689983
 11
0.625004
 20
1.37503
 21
1.375143
  0
LINE
  8
APS_GEOMETRY
 10
0.625004
 11
0.625
 20
1.375143
 21
4.039545
  0
LINE
  8
APS_GEOMETRY
 10
0.625
 11
0.568902
 20
4.039545
 21
4.039643
  0
ARC
  8
APS_GEOMETRY
 10
0.352793
 20
4.053636
 40
0.216562
 50
356.295302
 51
86.498287
  0
ARC
  8
APS_GEOMETRY
 10
0.410503
 20
4.555097
 40
0.28875
 50
193.784399
 51
261.138025
  0
ARC
  8
APS_GEOMETRY
 10
0.112542
 20
4.481997
 40
0.018047
 50
13.782494
 51
89.999831
  0
LINE
  8
APS_GEOMETRY
 10
0.112542
 11
0.0
 20
4.500044
 21
4.500043
  0
LINE
  8
APS_GEOMETRY
 10
0.0
 11
0.112542
 20
4.500043
 21
4.500043
  0
LINE
  8
CONSTRUCTION
 10
0.152615
 11
0.10065
 20
-1.038482
 21
-1.166909
  0
LINE
  8
CONSTRUCTION
 10
0.10065
 11
0.20458
 20
-1.166909
 21
-1.166909
  0
LINE
  8
CONSTRUCTION
 10
0.20458
 11
0.152615
 20
-1.166909
 21
-1.038482
  0
LINE
  8
CONSTRUCTION
 10
0.152615
 11
0.559547
 20
-1.038482
 21
-1.03848
  0
LINE
  8
CONSTRUCTION
 10
0.559547
 11
0.507582
 20
-1.03848
 21
-1.166908
  0
LINE
  8
CONSTRUCTION
 10
0.507582
 11
0.611512
 20
-1.166908
 21
-1.166908
  0
LINE
  8
CONSTRUCTION
 10
0.611512
 11
0.559547
 20
-1.166908
 21
-1.03848
  0
LINE
  8
CONSTRUCTION
 10
0.559547
 11
0.966478
 20
-1.03848
 21
-1.03848
  0
LINE
  8
CONSTRUCTION
 10
0.966478
 11
0.914513
 20
-1.03848
 21
-1.166908
  0
LINE
  8
CONSTRUCTION
 10
0.914513
 11
1.018442
 20
-1.166908
 21
-1.166908
  0
LINE
  8
CONSTRUCTION
 10
1.018442
 11
0.966478
 20
-1.166908
 21
-1.03848
  0
LINE
  8
CONSTRUCTION
 10
0.966478
 11
1.373408
 20
-1.03848
 21
-1.03848
  0
LINE
  8
CONSTRUCTION
 10
1.373408
 11
1.321443
 20
-1.03848
 21
-1.166908
  0
LINE
  8
CONSTRUCTION
 10
1.321443
 11
1.425373
 20
-1.166908
 21
-1.166908
  0
LINE
  8
CONSTRUCTION
 10
1.425373
 11
1.373408
 20
-1.166908
 21
-1.03848
  0
LINE
  8
CONSTRUCTION
 10
1.373408
 11
1.780281
 20
-1.03848
 21
-1.038482
  0
LINE
  8
CONSTRUCTION
 10
1.780281
 11
1.728316
 20
-1.038482
 21
-1.166909
  0
LINE
  8
CONSTRUCTION
 10
1.728316
 11
1.832246
 20
-1.166909
 21
-1.166909
  0
LINE
  8
CONSTRUCTION
 10
1.832246
 11
1.780281
 20
-1.166909
 21
-1.038482
  0
LINE
  8
CONSTRUCTION
 10
0.0
 11
4.0
 20
-1.561751
 21
-1.561751
  0
TEXT
  8
TEXT
 10
0.1
 20
-1.8
 30
0.0
 40
0.1
 50
0.0
  1
Phone: (406) 248-5010    Website: www.dovetailmt.com
  0
TEXT
  8
TEXT
 10
1.092458
 20
-1.640461
 30
0.0
 40
0.07
 50
0.0
  1
Established 1979
  0
TEXT
  8
TEXT
 10
2.276036
 20
-1.551751
 30
0.0
 40
0.099
 50
0.0
  1
& MILLWORK INC.
  0
TEXT
  8
TEXT
 10
0.10065
 20
-1.405784
 30
0.0
 40
0.224
 50
0.0
  1
DOVETAIL DESIGNS
  0
TEXT
  8
TEXT
 10
0.0
 20
-0.5
 30
0.0
 40
0.1
 50
0.0
  1
3/4"x4-1/2"
  0
TEXT
  8
TEXT
 10
0.0
 20
-0.25
 30
0.0
 40
0.15625
 50
0.0
  1
B187
  0
ENDSEC
  0
EOF
