  0
SECTION
  2
ENTITIES
  0
ARC
  8
APS_GEOMETRY
 10
0.8125
 20
4.070439
 40
0.25
 50
104.477512
 51
180.0
  0
LINE
  8
APS_GEOMETRY
 10
0.5625
 11
0.5625
 20
4.070439
 21
1.96875
  0
ARC
  8
APS_GEOMETRY
 10
0.75
 20
1.96875
 40
0.1875
 50
180.0
 51
270.0
  0
LINE
  8
APS_GEOMETRY
 10
0.75
 11
0.75
 20
1.78125
 21
0.0
  0
LINE
  8
APS_GEOMETRY
 10
0.75
 11
0.0
 20
0.0
 21
0.0
  0
LINE
  8
APS_GEOMETRY
 10
0.0
 11
0.0
 20
0.0
 21
6.0
  0
ARC
  8
APS_GEOMETRY
 10
-2.292589
 20
0.928241
 40
5.565851
 50
64.502762
 51
65.675588
  0
ARC
  8
APS_GEOMETRY
 10
-0.518941
 20
4.647201
 40
1.445598
 50
62.463336
 51
64.503298
  0
ARC
  8
APS_GEOMETRY
 10
-0.085007
 20
5.479489
 40
0.506981
 50
54.248834
 51
62.462862
  0
ARC
  8
APS_GEOMETRY
 10
-0.19271
 20
5.329822
 40
0.691372
 50
52.902454
 51
54.251939
  0
ARC
  8
APS_GEOMETRY
 10
0.004284
 20
5.590367
 40
0.364737
 50
47.97483
 51
52.897759
  0
ARC
  8
APS_GEOMETRY
 10
0.166962
 20
5.770868
 40
0.121746
 50
36.344199
 51
47.978817
  0
ARC
  8
APS_GEOMETRY
 10
0.176202
 20
5.777678
 40
0.110268
 50
26.696814
 51
36.339188
  0
ARC
  8
APS_GEOMETRY
 10
0.03059
 20
5.704434
 40
0.273263
 50
19.600979
 51
26.70039
  0
ARC
  8
APS_GEOMETRY
 10
-0.266499
 20
5.598657
 40
0.588621
 50
12.365957
 51
19.599377
  0
ARC
  8
APS_GEOMETRY
 10
-5.954643
 20
4.351422
 40
6.4119
 50
10.61759
 51
12.367336
  0
LINE
  8
APS_GEOMETRY
 10
0.347478
 11
0.376292
 20
5.532835
 21
5.378282
  0
ARC
  8
APS_GEOMETRY
 10
3.616298
 20
5.997714
 40
3.298687
 50
190.823333
 51
192.982301
  0
ARC
  8
APS_GEOMETRY
 10
1.036944
 20
5.403063
 40
0.651674
 50
192.982407
 51
197.910159
  0
ARC
  8
APS_GEOMETRY
 10
0.916328
 20
5.364085
 40
0.524916
 50
197.910506
 51
204.22853
  0
ARC
  8
APS_GEOMETRY
 10
0.754534
 20
5.291267
 40
0.347491
 50
204.22723
 51
211.005075
  0
ARC
  8
APS_GEOMETRY
 10
0.647773
 20
5.227112
 40
0.222937
 50
211.00649
 51
219.616116
  0
ARC
  8
APS_GEOMETRY
 10
0.575653
 20
5.167415
 40
0.129315
 50
219.616021
 51
229.499496
  0
ARC
  8
APS_GEOMETRY
 10
0.635726
 20
5.23773
 40
0.221797
 50
229.496245
 51
234.458148
  0
ARC
  8
APS_GEOMETRY
 10
0.862116
 20
5.554687
 40
0.611302
 50
234.461434
 51
237.341246
  0
ARC
  8
APS_GEOMETRY
 10
0.895017
 20
5.606033
 40
0.672285
 50
237.341992
 51
239.881739
  0
ARC
  8
APS_GEOMETRY
 10
0.705471
 20
5.279271
 40
0.294527
 50
239.880013
 51
252.773765
  0
ARC
  8
APS_GEOMETRY
 10
0.791812
 20
5.557755
 40
0.586088
 50
252.774068
 51
257.298649
  0
ARC
  8
APS_GEOMETRY
 10
1.03892
 20
6.654245
 40
1.710078
 50
257.299421
 51
260.27314
  0
LINE
  8
APS_GEOMETRY
 10
0.75
 11
0.75
 20
4.96875
 21
4.3125
  0
LINE
  8
CONSTRUCTION
 10
0.152615
 11
0.10065
 20
-1.038482
 21
-1.166909
  0
LINE
  8
CONSTRUCTION
 10
0.10065
 11
0.20458
 20
-1.166909
 21
-1.166909
  0
LINE
  8
CONSTRUCTION
 10
0.20458
 11
0.152615
 20
-1.166909
 21
-1.038482
  0
LINE
  8
CONSTRUCTION
 10
0.152615
 11
0.559547
 20
-1.038482
 21
-1.03848
  0
LINE
  8
CONSTRUCTION
 10
0.559547
 11
0.507582
 20
-1.03848
 21
-1.166908
  0
LINE
  8
CONSTRUCTION
 10
0.507582
 11
0.611512
 20
-1.166908
 21
-1.166908
  0
LINE
  8
CONSTRUCTION
 10
0.611512
 11
0.559547
 20
-1.166908
 21
-1.03848
  0
LINE
  8
CONSTRUCTION
 10
0.559547
 11
0.966478
 20
-1.03848
 21
-1.03848
  0
LINE
  8
CONSTRUCTION
 10
0.966478
 11
0.914513
 20
-1.03848
 21
-1.166908
  0
LINE
  8
CONSTRUCTION
 10
0.914513
 11
1.018442
 20
-1.166908
 21
-1.166908
  0
LINE
  8
CONSTRUCTION
 10
1.018442
 11
0.966478
 20
-1.166908
 21
-1.03848
  0
LINE
  8
CONSTRUCTION
 10
0.966478
 11
1.373408
 20
-1.03848
 21
-1.03848
  0
LINE
  8
CONSTRUCTION
 10
1.373408
 11
1.321443
 20
-1.03848
 21
-1.166908
  0
LINE
  8
CONSTRUCTION
 10
1.321443
 11
1.425373
 20
-1.166908
 21
-1.166908
  0
LINE
  8
CONSTRUCTION
 10
1.425373
 11
1.373408
 20
-1.166908
 21
-1.03848
  0
LINE
  8
CONSTRUCTION
 10
1.373408
 11
1.780281
 20
-1.03848
 21
-1.038482
  0
LINE
  8
CONSTRUCTION
 10
1.780281
 11
1.728316
 20
-1.038482
 21
-1.166909
  0
LINE
  8
CONSTRUCTION
 10
1.728316
 11
1.832246
 20
-1.166909
 21
-1.166909
  0
LINE
  8
CONSTRUCTION
 10
1.832246
 11
1.780281
 20
-1.166909
 21
-1.038482
  0
LINE
  8
CONSTRUCTION
 10
0.0
 11
4.0
 20
-1.561751
 21
-1.561751
  0
TEXT
  8
TEXT
 10
0.10065
 20
-1.405784
 30
0.0
 40
0.224
 50
0.0
  1
DOVETAIL DESIGNS
  0
TEXT
  8
TEXT
 10
2.276036
 20
-1.551751
 30
0.0
 40
0.099
 50
0.0
  1
& MILLWORK INC.
  0
TEXT
  8
TEXT
 10
1.092458
 20
-1.640461
 30
0.0
 40
0.07
 50
0.0
  1
Established 1979
  0
TEXT
  8
TEXT
 10
0.1
 20
-1.8
 30
0.0
 40
0.1
 50
0.0
  1
Phone: (406) 248-5010    Website: www.dovetailmt.com
  0
TEXT
  8
TEXT
 10
0.0
 20
-0.25
 30
0.0
 40
0.15625
 50
0.0
  1
B172
  0
TEXT
  8
TEXT
 10
0.0
 20
-0.5
 30
0.0
 40
0.1
 50
0.0
  1
3/4"x6"
  0
ENDSEC
  0
EOF
