  0
SECTION
  2
ENTITIES
  0
ARC
  8
APS_GEOMETRY
 10
0.252501
 20
3.11
 40
0.015
 50
359.999985
 51
89.999985
  0
LINE
  8
APS_GEOMETRY
 10
0.252501
 11
0.000001
 20
3.125
 21
3.125
  0
LINE
  8
APS_GEOMETRY
 10
0.000001
 11
0.0
 20
3.125
 21
0.0
  0
LINE
  8
APS_GEOMETRY
 10
0.0
 11
0.6875
 20
0.0
 21
0.0
  0
LINE
  8
APS_GEOMETRY
 10
0.6875
 11
0.6875
 20
0.0
 21
1.971741
  0
LINE
  8
APS_GEOMETRY
 10
0.6875
 11
0.67813
 20
1.971741
 21
1.976327
  0
LINE
  8
APS_GEOMETRY
 10
0.67813
 11
0.675722
 20
1.976327
 21
1.977524
  0
LINE
  8
APS_GEOMETRY
 10
0.675722
 11
0.673332
 20
1.977524
 21
1.978729
  0
LINE
  8
APS_GEOMETRY
 10
0.673332
 11
0.670961
 20
1.978729
 21
1.979942
  0
LINE
  8
APS_GEOMETRY
 10
0.670961
 11
0.668608
 20
1.979942
 21
1.981164
  0
LINE
  8
APS_GEOMETRY
 10
0.668608
 11
0.666273
 20
1.981164
 21
1.982394
  0
LINE
  8
APS_GEOMETRY
 10
0.666273
 11
0.663955
 20
1.982394
 21
1.983633
  0
LINE
  8
APS_GEOMETRY
 10
0.663955
 11
0.661656
 20
1.983633
 21
1.98488
  0
LINE
  8
APS_GEOMETRY
 10
0.661656
 11
0.659375
 20
1.98488
 21
1.986136
  0
LINE
  8
APS_GEOMETRY
 10
0.659375
 11
0.657111
 20
1.986136
 21
1.987399
  0
LINE
  8
APS_GEOMETRY
 10
0.657111
 11
0.654866
 20
1.987399
 21
1.988671
  0
LINE
  8
APS_GEOMETRY
 10
0.654866
 11
0.652638
 20
1.988671
 21
1.989952
  0
LINE
  8
APS_GEOMETRY
 10
0.652638
 11
0.650427
 20
1.989952
 21
1.99124
  0
LINE
  8
APS_GEOMETRY
 10
0.650427
 11
0.648234
 20
1.99124
 21
1.992537
  0
LINE
  8
APS_GEOMETRY
 10
0.648234
 11
0.646059
 20
1.992537
 21
1.993841
  0
LINE
  8
APS_GEOMETRY
 10
0.646059
 11
0.643901
 20
1.993841
 21
1.995154
  0
LINE
  8
APS_GEOMETRY
 10
0.643901
 11
0.64176
 20
1.995154
 21
1.996475
  0
LINE
  8
APS_GEOMETRY
 10
0.64176
 11
0.639637
 20
1.996475
 21
1.997804
  0
LINE
  8
APS_GEOMETRY
 10
0.639637
 11
0.637531
 20
1.997804
 21
1.999141
  0
LINE
  8
APS_GEOMETRY
 10
0.637531
 11
0.635441
 20
1.999141
 21
2.000485
  0
LINE
  8
APS_GEOMETRY
 10
0.635441
 11
0.633369
 20
2.000485
 21
2.001838
  0
LINE
  8
APS_GEOMETRY
 10
0.633369
 11
0.631314
 20
2.001838
 21
2.003199
  0
LINE
  8
APS_GEOMETRY
 10
0.631314
 11
0.629276
 20
2.003199
 21
2.004567
  0
LINE
  8
APS_GEOMETRY
 10
0.629276
 11
0.627255
 20
2.004567
 21
2.005943
  0
LINE
  8
APS_GEOMETRY
 10
0.627255
 11
0.62525
 20
2.005943
 21
2.007327
  0
LINE
  8
APS_GEOMETRY
 10
0.62525
 11
0.623262
 20
2.007327
 21
2.008719
  0
LINE
  8
APS_GEOMETRY
 10
0.623262
 11
0.621291
 20
2.008719
 21
2.010118
  0
LINE
  8
APS_GEOMETRY
 10
0.621291
 11
0.619337
 20
2.010118
 21
2.011525
  0
LINE
  8
APS_GEOMETRY
 10
0.619337
 11
0.617398
 20
2.011525
 21
2.012939
  0
LINE
  8
APS_GEOMETRY
 10
0.617398
 11
0.615477
 20
2.012939
 21
2.014361
  0
LINE
  8
APS_GEOMETRY
 10
0.615477
 11
0.613571
 20
2.014361
 21
2.015791
  0
LINE
  8
APS_GEOMETRY
 10
0.613571
 11
0.611682
 20
2.015791
 21
2.017228
  0
LINE
  8
APS_GEOMETRY
 10
0.611682
 11
0.609809
 20
2.017228
 21
2.018672
  0
LINE
  8
APS_GEOMETRY
 10
0.609809
 11
0.607953
 20
2.018672
 21
2.020124
  0
LINE
  8
APS_GEOMETRY
 10
0.607953
 11
0.606112
 20
2.020124
 21
2.021584
  0
LINE
  8
APS_GEOMETRY
 10
0.606112
 11
0.604287
 20
2.021584
 21
2.02305
  0
LINE
  8
APS_GEOMETRY
 10
0.604287
 11
0.602478
 20
2.02305
 21
2.024524
  0
LINE
  8
APS_GEOMETRY
 10
0.602478
 11
0.600685
 20
2.024524
 21
2.026006
  0
LINE
  8
APS_GEOMETRY
 10
0.600685
 11
0.598908
 20
2.026006
 21
2.027494
  0
LINE
  8
APS_GEOMETRY
 10
0.598908
 11
0.597147
 20
2.027494
 21
2.02899
  0
LINE
  8
APS_GEOMETRY
 10
0.597147
 11
0.595401
 20
2.02899
 21
2.030493
  0
LINE
  8
APS_GEOMETRY
 10
0.595401
 11
0.593671
 20
2.030493
 21
2.032003
  0
LINE
  8
APS_GEOMETRY
 10
0.593671
 11
0.591956
 20
2.032003
 21
2.03352
  0
LINE
  8
APS_GEOMETRY
 10
0.591956
 11
0.590257
 20
2.03352
 21
2.035044
  0
LINE
  8
APS_GEOMETRY
 10
0.590257
 11
0.588573
 20
2.035044
 21
2.036575
  0
LINE
  8
APS_GEOMETRY
 10
0.588573
 11
0.586905
 20
2.036575
 21
2.038113
  0
LINE
  8
APS_GEOMETRY
 10
0.586905
 11
0.585252
 20
2.038113
 21
2.039658
  0
LINE
  8
APS_GEOMETRY
 10
0.585252
 11
0.583613
 20
2.039658
 21
2.04121
  0
LINE
  8
APS_GEOMETRY
 10
0.583613
 11
0.58199
 20
2.04121
 21
2.042769
  0
LINE
  8
APS_GEOMETRY
 10
0.58199
 11
0.580382
 20
2.042769
 21
2.044334
  0
LINE
  8
APS_GEOMETRY
 10
0.580382
 11
0.578789
 20
2.044334
 21
2.045907
  0
LINE
  8
APS_GEOMETRY
 10
0.578789
 11
0.577211
 20
2.045907
 21
2.047486
  0
LINE
  8
APS_GEOMETRY
 10
0.577211
 11
0.575648
 20
2.047486
 21
2.049072
  0
LINE
  8
APS_GEOMETRY
 10
0.575648
 11
0.574099
 20
2.049072
 21
2.050664
  0
LINE
  8
APS_GEOMETRY
 10
0.574099
 11
0.572565
 20
2.050664
 21
2.052264
  0
LINE
  8
APS_GEOMETRY
 10
0.572565
 11
0.571046
 20
2.052264
 21
2.05387
  0
LINE
  8
APS_GEOMETRY
 10
0.571046
 11
0.569541
 20
2.05387
 21
2.055482
  0
LINE
  8
APS_GEOMETRY
 10
0.569541
 11
0.56805
 20
2.055482
 21
2.057101
  0
LINE
  8
APS_GEOMETRY
 10
0.56805
 11
0.566574
 20
2.057101
 21
2.058726
  0
LINE
  8
APS_GEOMETRY
 10
0.566574
 11
0.565112
 20
2.058726
 21
2.060358
  0
LINE
  8
APS_GEOMETRY
 10
0.565112
 11
0.563665
 20
2.060358
 21
2.061996
  0
LINE
  8
APS_GEOMETRY
 10
0.563665
 11
0.562232
 20
2.061996
 21
2.063641
  0
LINE
  8
APS_GEOMETRY
 10
0.562232
 11
0.560813
 20
2.063641
 21
2.065292
  0
LINE
  8
APS_GEOMETRY
 10
0.560813
 11
0.559407
 20
2.065292
 21
2.066949
  0
LINE
  8
APS_GEOMETRY
 10
0.559407
 11
0.558016
 20
2.066949
 21
2.068613
  0
LINE
  8
APS_GEOMETRY
 10
0.558016
 11
0.556639
 20
2.068613
 21
2.070283
  0
LINE
  8
APS_GEOMETRY
 10
0.556639
 11
0.555276
 20
2.070283
 21
2.071959
  0
LINE
  8
APS_GEOMETRY
 10
0.555276
 11
0.553926
 20
2.071959
 21
2.073641
  0
LINE
  8
APS_GEOMETRY
 10
0.553926
 11
0.55259
 20
2.073641
 21
2.07533
  0
LINE
  8
APS_GEOMETRY
 10
0.55259
 11
0.551268
 20
2.07533
 21
2.077024
  0
LINE
  8
APS_GEOMETRY
 10
0.551268
 11
0.549959
 20
2.077024
 21
2.078724
  0
LINE
  8
APS_GEOMETRY
 10
0.549959
 11
0.548663
 20
2.078724
 21
2.080431
  0
LINE
  8
APS_GEOMETRY
 10
0.548663
 11
0.547381
 20
2.080431
 21
2.082143
  0
LINE
  8
APS_GEOMETRY
 10
0.547381
 11
0.546113
 20
2.082143
 21
2.083862
  0
LINE
  8
APS_GEOMETRY
 10
0.546113
 11
0.544857
 20
2.083862
 21
2.085586
  0
LINE
  8
APS_GEOMETRY
 10
0.544857
 11
0.543615
 20
2.085586
 21
2.087316
  0
LINE
  8
APS_GEOMETRY
 10
0.543615
 11
0.542386
 20
2.087316
 21
2.089052
  0
LINE
  8
APS_GEOMETRY
 10
0.542386
 11
0.54117
 20
2.089052
 21
2.090794
  0
LINE
  8
APS_GEOMETRY
 10
0.54117
 11
0.539967
 20
2.090794
 21
2.092542
  0
LINE
  8
APS_GEOMETRY
 10
0.539967
 11
0.538777
 20
2.092542
 21
2.094295
  0
LINE
  8
APS_GEOMETRY
 10
0.538777
 11
0.5376
 20
2.094295
 21
2.096054
  0
LINE
  8
APS_GEOMETRY
 10
0.5376
 11
0.536436
 20
2.096054
 21
2.097819
  0
LINE
  8
APS_GEOMETRY
 10
0.536436
 11
0.535284
 20
2.097819
 21
2.099589
  0
LINE
  8
APS_GEOMETRY
 10
0.535284
 11
0.534145
 20
2.099589
 21
2.101365
  0
LINE
  8
APS_GEOMETRY
 10
0.534145
 11
0.533018
 20
2.101365
 21
2.103146
  0
LINE
  8
APS_GEOMETRY
 10
0.533018
 11
0.531904
 20
2.103146
 21
2.104933
  0
LINE
  8
APS_GEOMETRY
 10
0.531904
 11
0.530803
 20
2.104933
 21
2.106726
  0
LINE
  8
APS_GEOMETRY
 10
0.530803
 11
0.529713
 20
2.106726
 21
2.108523
  0
LINE
  8
APS_GEOMETRY
 10
0.529713
 11
0.528636
 20
2.108523
 21
2.110326
  0
LINE
  8
APS_GEOMETRY
 10
0.528636
 11
0.527572
 20
2.110326
 21
2.112135
  0
LINE
  8
APS_GEOMETRY
 10
0.527572
 11
0.526519
 20
2.112135
 21
2.113949
  0
LINE
  8
APS_GEOMETRY
 10
0.526519
 11
0.525479
 20
2.113949
 21
2.115768
  0
LINE
  8
APS_GEOMETRY
 10
0.525479
 11
0.52445
 20
2.115768
 21
2.117592
  0
LINE
  8
APS_GEOMETRY
 10
0.52445
 11
0.523433
 20
2.117592
 21
2.119422
  0
LINE
  8
APS_GEOMETRY
 10
0.523433
 11
0.522429
 20
2.119422
 21
2.121256
  0
LINE
  8
APS_GEOMETRY
 10
0.522429
 11
0.521436
 20
2.121256
 21
2.123096
  0
LINE
  8
APS_GEOMETRY
 10
0.521436
 11
0.520455
 20
2.123096
 21
2.124941
  0
LINE
  8
APS_GEOMETRY
 10
0.520455
 11
0.519485
 20
2.124941
 21
2.126791
  0
LINE
  8
APS_GEOMETRY
 10
0.519485
 11
0.518527
 20
2.126791
 21
2.128646
  0
LINE
  8
APS_GEOMETRY
 10
0.518527
 11
0.517581
 20
2.128646
 21
2.130506
  0
LINE
  8
APS_GEOMETRY
 10
0.517581
 11
0.516646
 20
2.130506
 21
2.132371
  0
LINE
  8
APS_GEOMETRY
 10
0.516646
 11
0.515722
 20
2.132371
 21
2.134241
  0
LINE
  8
APS_GEOMETRY
 10
0.515722
 11
0.51481
 20
2.134241
 21
2.136116
  0
LINE
  8
APS_GEOMETRY
 10
0.51481
 11
0.513909
 20
2.136116
 21
2.137995
  0
LINE
  8
APS_GEOMETRY
 10
0.513909
 11
0.513019
 20
2.137995
 21
2.13988
  0
LINE
  8
APS_GEOMETRY
 10
0.513019
 11
0.51214
 20
2.13988
 21
2.141769
  0
LINE
  8
APS_GEOMETRY
 10
0.51214
 11
0.511272
 20
2.141769
 21
2.143663
  0
LINE
  8
APS_GEOMETRY
 10
0.511272
 11
0.510415
 20
2.143663
 21
2.145561
  0
LINE
  8
APS_GEOMETRY
 10
0.510415
 11
0.509569
 20
2.145561
 21
2.147465
  0
LINE
  8
APS_GEOMETRY
 10
0.509569
 11
0.508734
 20
2.147465
 21
2.149372
  0
LINE
  8
APS_GEOMETRY
 10
0.508734
 11
0.50791
 20
2.149372
 21
2.151285
  0
LINE
  8
APS_GEOMETRY
 10
0.50791
 11
0.507096
 20
2.151285
 21
2.153202
  0
LINE
  8
APS_GEOMETRY
 10
0.507096
 11
0.506293
 20
2.153202
 21
2.155123
  0
LINE
  8
APS_GEOMETRY
 10
0.506293
 11
0.5055
 20
2.155123
 21
2.157049
  0
LINE
  8
APS_GEOMETRY
 10
0.5055
 11
0.504718
 20
2.157049
 21
2.158979
  0
LINE
  8
APS_GEOMETRY
 10
0.504718
 11
0.503946
 20
2.158979
 21
2.160914
  0
LINE
  8
APS_GEOMETRY
 10
0.503946
 11
0.503185
 20
2.160914
 21
2.162853
  0
LINE
  8
APS_GEOMETRY
 10
0.503185
 11
0.502434
 20
2.162853
 21
2.164797
  0
LINE
  8
APS_GEOMETRY
 10
0.502434
 11
0.501693
 20
2.164797
 21
2.166744
  0
LINE
  8
APS_GEOMETRY
 10
0.501693
 11
0.500962
 20
2.166744
 21
2.168696
  0
LINE
  8
APS_GEOMETRY
 10
0.500962
 11
0.500241
 20
2.168696
 21
2.170652
  0
LINE
  8
APS_GEOMETRY
 10
0.500241
 11
0.49953
 20
2.170652
 21
2.172613
  0
LINE
  8
APS_GEOMETRY
 10
0.49953
 11
0.498829
 20
2.172613
 21
2.174577
  0
LINE
  8
APS_GEOMETRY
 10
0.498829
 11
0.498138
 20
2.174577
 21
2.176546
  0
LINE
  8
APS_GEOMETRY
 10
0.498138
 11
0.497457
 20
2.176546
 21
2.178518
  0
LINE
  8
APS_GEOMETRY
 10
0.497457
 11
0.496785
 20
2.178518
 21
2.180495
  0
LINE
  8
APS_GEOMETRY
 10
0.496785
 11
0.496123
 20
2.180495
 21
2.182476
  0
LINE
  8
APS_GEOMETRY
 10
0.496123
 11
0.495471
 20
2.182476
 21
2.18446
  0
LINE
  8
APS_GEOMETRY
 10
0.495471
 11
0.494828
 20
2.18446
 21
2.186449
  0
LINE
  8
APS_GEOMETRY
 10
0.494828
 11
0.494194
 20
2.186449
 21
2.188441
  0
LINE
  8
APS_GEOMETRY
 10
0.494194
 11
0.49357
 20
2.188441
 21
2.190438
  0
LINE
  8
APS_GEOMETRY
 10
0.49357
 11
0.492955
 20
2.190438
 21
2.192438
  0
LINE
  8
APS_GEOMETRY
 10
0.492955
 11
0.492349
 20
2.192438
 21
2.194441
  0
LINE
  8
APS_GEOMETRY
 10
0.492349
 11
0.491752
 20
2.194441
 21
2.196449
  0
LINE
  8
APS_GEOMETRY
 10
0.491752
 11
0.491165
 20
2.196449
 21
2.19846
  0
LINE
  8
APS_GEOMETRY
 10
0.491165
 11
0.490586
 20
2.19846
 21
2.200475
  0
LINE
  8
APS_GEOMETRY
 10
0.490586
 11
0.490016
 20
2.200475
 21
2.202494
  0
LINE
  8
APS_GEOMETRY
 10
0.490016
 11
0.489456
 20
2.202494
 21
2.204516
  0
LINE
  8
APS_GEOMETRY
 10
0.489456
 11
0.488904
 20
2.204516
 21
2.206541
  0
LINE
  8
APS_GEOMETRY
 10
0.488904
 11
0.48836
 20
2.206541
 21
2.20857
  0
LINE
  8
APS_GEOMETRY
 10
0.48836
 11
0.487826
 20
2.20857
 21
2.210603
  0
LINE
  8
APS_GEOMETRY
 10
0.487826
 11
0.487299
 20
2.210603
 21
2.212639
  0
LINE
  8
APS_GEOMETRY
 10
0.487299
 11
0.486782
 20
2.212639
 21
2.214679
  0
LINE
  8
APS_GEOMETRY
 10
0.486782
 11
0.486273
 20
2.214679
 21
2.216721
  0
LINE
  8
APS_GEOMETRY
 10
0.486273
 11
0.485772
 20
2.216721
 21
2.218768
  0
LINE
  8
APS_GEOMETRY
 10
0.485772
 11
0.485279
 20
2.218768
 21
2.220817
  0
LINE
  8
APS_GEOMETRY
 10
0.485279
 11
0.484795
 20
2.220817
 21
2.22287
  0
LINE
  8
APS_GEOMETRY
 10
0.484795
 11
0.484319
 20
2.22287
 21
2.224926
  0
LINE
  8
APS_GEOMETRY
 10
0.484319
 11
0.483851
 20
2.224926
 21
2.226985
  0
LINE
  8
APS_GEOMETRY
 10
0.483851
 11
0.483391
 20
2.226985
 21
2.229047
  0
LINE
  8
APS_GEOMETRY
 10
0.483391
 11
0.482939
 20
2.229047
 21
2.231112
  0
LINE
  8
APS_GEOMETRY
 10
0.482939
 11
0.482494
 20
2.231112
 21
2.233181
  0
LINE
  8
APS_GEOMETRY
 10
0.482494
 11
0.482058
 20
2.233181
 21
2.235252
  0
LINE
  8
APS_GEOMETRY
 10
0.482058
 11
0.481629
 20
2.235252
 21
2.237327
  0
LINE
  8
APS_GEOMETRY
 10
0.481629
 11
0.481208
 20
2.237327
 21
2.239404
  0
LINE
  8
APS_GEOMETRY
 10
0.481208
 11
0.480795
 20
2.239404
 21
2.241484
  0
LINE
  8
APS_GEOMETRY
 10
0.480795
 11
0.480389
 20
2.241484
 21
2.243567
  0
LINE
  8
APS_GEOMETRY
 10
0.480389
 11
0.47999
 20
2.243567
 21
2.245653
  0
LINE
  8
APS_GEOMETRY
 10
0.47999
 11
0.479599
 20
2.245653
 21
2.247742
  0
LINE
  8
APS_GEOMETRY
 10
0.479599
 11
0.479215
 20
2.247742
 21
2.249834
  0
LINE
  8
APS_GEOMETRY
 10
0.479215
 11
0.478839
 20
2.249834
 21
2.251928
  0
LINE
  8
APS_GEOMETRY
 10
0.478839
 11
0.478469
 20
2.251928
 21
2.254025
  0
LINE
  8
APS_GEOMETRY
 10
0.478469
 11
0.478107
 20
2.254025
 21
2.256125
  0
LINE
  8
APS_GEOMETRY
 10
0.478107
 11
0.477752
 20
2.256125
 21
2.258227
  0
LINE
  8
APS_GEOMETRY
 10
0.477752
 11
0.477403
 20
2.258227
 21
2.260332
  0
LINE
  8
APS_GEOMETRY
 10
0.477403
 11
0.477062
 20
2.260332
 21
2.26244
  0
LINE
  8
APS_GEOMETRY
 10
0.477062
 11
0.476727
 20
2.26244
 21
2.26455
  0
LINE
  8
APS_GEOMETRY
 10
0.476727
 11
0.476399
 20
2.26455
 21
2.266662
  0
LINE
  8
APS_GEOMETRY
 10
0.476399
 11
0.476078
 20
2.266662
 21
2.268777
  0
LINE
  8
APS_GEOMETRY
 10
0.476078
 11
0.475764
 20
2.268777
 21
2.270894
  0
LINE
  8
APS_GEOMETRY
 10
0.475764
 11
0.475455
 20
2.270894
 21
2.273014
  0
LINE
  8
APS_GEOMETRY
 10
0.475455
 11
0.475154
 20
2.273014
 21
2.275136
  0
LINE
  8
APS_GEOMETRY
 10
0.475154
 11
0.474859
 20
2.275136
 21
2.27726
  0
LINE
  8
APS_GEOMETRY
 10
0.474859
 11
0.47457
 20
2.27726
 21
2.279387
  0
LINE
  8
APS_GEOMETRY
 10
0.47457
 11
0.474287
 20
2.279387
 21
2.281516
  0
LINE
  8
APS_GEOMETRY
 10
0.474287
 11
0.474011
 20
2.281516
 21
2.283647
  0
LINE
  8
APS_GEOMETRY
 10
0.474011
 11
0.473741
 20
2.283647
 21
2.28578
  0
LINE
  8
APS_GEOMETRY
 10
0.473741
 11
0.473476
 20
2.28578
 21
2.287915
  0
LINE
  8
APS_GEOMETRY
 10
0.473476
 11
0.473218
 20
2.287915
 21
2.290052
  0
LINE
  8
APS_GEOMETRY
 10
0.473218
 11
0.472966
 20
2.290052
 21
2.292191
  0
LINE
  8
APS_GEOMETRY
 10
0.472966
 11
0.472719
 20
2.292191
 21
2.294333
  0
LINE
  8
APS_GEOMETRY
 10
0.472719
 11
0.472479
 20
2.294333
 21
2.296476
  0
LINE
  8
APS_GEOMETRY
 10
0.472479
 11
0.472243
 20
2.296476
 21
2.298621
  0
LINE
  8
APS_GEOMETRY
 10
0.472243
 11
0.472014
 20
2.298621
 21
2.300768
  0
LINE
  8
APS_GEOMETRY
 10
0.472014
 11
0.47179
 20
2.300768
 21
2.302917
  0
LINE
  8
APS_GEOMETRY
 10
0.47179
 11
0.471572
 20
2.302917
 21
2.305068
  0
LINE
  8
APS_GEOMETRY
 10
0.471572
 11
0.471359
 20
2.305068
 21
2.307221
  0
LINE
  8
APS_GEOMETRY
 10
0.471359
 11
0.471151
 20
2.307221
 21
2.309375
  0
LINE
  8
APS_GEOMETRY
 10
0.471151
 11
0.470949
 20
2.309375
 21
2.311531
  0
LINE
  8
APS_GEOMETRY
 10
0.470949
 11
0.470752
 20
2.311531
 21
2.313688
  0
LINE
  8
APS_GEOMETRY
 10
0.470752
 11
0.47056
 20
2.313688
 21
2.315848
  0
LINE
  8
APS_GEOMETRY
 10
0.47056
 11
0.470373
 20
2.315848
 21
2.318009
  0
LINE
  8
APS_GEOMETRY
 10
0.470373
 11
0.470191
 20
2.318009
 21
2.320171
  0
LINE
  8
APS_GEOMETRY
 10
0.470191
 11
0.470014
 20
2.320171
 21
2.322335
  0
LINE
  8
APS_GEOMETRY
 10
0.470014
 11
0.469674
 20
2.322335
 21
2.326667
  0
LINE
  8
APS_GEOMETRY
 10
0.469674
 11
0.469354
 20
2.326667
 21
2.331005
  0
LINE
  8
APS_GEOMETRY
 10
0.469354
 11
0.469051
 20
2.331005
 21
2.335348
  0
LINE
  8
APS_GEOMETRY
 10
0.469051
 11
0.468767
 20
2.335348
 21
2.339697
  0
LINE
  8
APS_GEOMETRY
 10
0.468767
 11
0.468499
 20
2.339697
 21
2.34405
  0
LINE
  8
APS_GEOMETRY
 10
0.468499
 11
0.468249
 20
2.34405
 21
2.348407
  0
LINE
  8
APS_GEOMETRY
 10
0.468249
 11
0.468014
 20
2.348407
 21
2.352769
  0
LINE
  8
APS_GEOMETRY
 10
0.468014
 11
0.467795
 20
2.352769
 21
2.357135
  0
LINE
  8
APS_GEOMETRY
 10
0.467795
 11
0.46759
 20
2.357135
 21
2.361504
  0
LINE
  8
APS_GEOMETRY
 10
0.46759
 11
0.467401
 20
2.361504
 21
2.365876
  0
LINE
  8
APS_GEOMETRY
 10
0.467401
 11
0.467224
 20
2.365876
 21
2.370251
  0
LINE
  8
APS_GEOMETRY
 10
0.467224
 11
0.467062
 20
2.370251
 21
2.374629
  0
LINE
  8
APS_GEOMETRY
 10
0.467062
 11
0.466912
 20
2.374629
 21
2.37901
  0
LINE
  8
APS_GEOMETRY
 10
0.466912
 11
0.466774
 20
2.37901
 21
2.383392
  0
LINE
  8
APS_GEOMETRY
 10
0.466774
 11
0.466647
 20
2.383392
 21
2.387777
  0
LINE
  8
APS_GEOMETRY
 10
0.466647
 11
0.466532
 20
2.387777
 21
2.392163
  0
LINE
  8
APS_GEOMETRY
 10
0.466532
 11
0.466427
 20
2.392163
 21
2.39655
  0
LINE
  8
APS_GEOMETRY
 10
0.466427
 11
0.466332
 20
2.39655
 21
2.400938
  0
LINE
  8
APS_GEOMETRY
 10
0.466332
 11
0.466246
 20
2.400938
 21
2.405326
  0
LINE
  8
APS_GEOMETRY
 10
0.466246
 11
0.466169
 20
2.405326
 21
2.409715
  0
LINE
  8
APS_GEOMETRY
 10
0.466169
 11
0.4661
 20
2.409715
 21
2.414104
  0
LINE
  8
APS_GEOMETRY
 10
0.4661
 11
0.466039
 20
2.414104
 21
2.418493
  0
LINE
  8
APS_GEOMETRY
 10
0.466039
 11
0.465985
 20
2.418493
 21
2.422881
  0
LINE
  8
APS_GEOMETRY
 10
0.465985
 11
0.465938
 20
2.422881
 21
2.427268
  0
LINE
  8
APS_GEOMETRY
 10
0.465938
 11
0.465896
 20
2.427268
 21
2.431654
  0
LINE
  8
APS_GEOMETRY
 10
0.465896
 11
0.46586
 20
2.431654
 21
2.436039
  0
LINE
  8
APS_GEOMETRY
 10
0.46586
 11
0.465829
 20
2.436039
 21
2.440422
  0
LINE
  8
APS_GEOMETRY
 10
0.465829
 11
0.465779
 20
2.440422
 21
2.449181
  0
LINE
  8
APS_GEOMETRY
 10
0.465779
 11
0.465741
 20
2.449181
 21
2.45793
  0
LINE
  8
APS_GEOMETRY
 10
0.465741
 11
0.465712
 20
2.45793
 21
2.466666
  0
LINE
  8
APS_GEOMETRY
 10
0.465712
 11
0.46566
 20
2.466666
 21
2.484091
  0
LINE
  8
APS_GEOMETRY
 10
0.46566
 11
0.465628
 20
2.484091
 21
2.492774
  0
LINE
  8
APS_GEOMETRY
 10
0.465628
 11
0.465587
 20
2.492774
 21
2.501435
  0
LINE
  8
APS_GEOMETRY
 10
0.465587
 11
0.465531
 20
2.501435
 21
2.510072
  0
LINE
  8
APS_GEOMETRY
 10
0.465531
 11
0.465496
 20
2.510072
 21
2.51438
  0
LINE
  8
APS_GEOMETRY
 10
0.465496
 11
0.465456
 20
2.51438
 21
2.518681
  0
LINE
  8
APS_GEOMETRY
 10
0.465456
 11
0.465411
 20
2.518681
 21
2.522975
  0
LINE
  8
APS_GEOMETRY
 10
0.465411
 11
0.465359
 20
2.522975
 21
2.527261
  0
LINE
  8
APS_GEOMETRY
 10
0.465359
 11
0.4653
 20
2.527261
 21
2.531539
  0
LINE
  8
APS_GEOMETRY
 10
0.4653
 11
0.465233
 20
2.531539
 21
2.535809
  0
LINE
  8
APS_GEOMETRY
 10
0.465233
 11
0.465159
 20
2.535809
 21
2.540071
  0
LINE
  8
APS_GEOMETRY
 10
0.465159
 11
0.465076
 20
2.540071
 21
2.544324
  0
LINE
  8
APS_GEOMETRY
 10
0.465076
 11
0.464983
 20
2.544324
 21
2.548567
  0
LINE
  8
APS_GEOMETRY
 10
0.464983
 11
0.464881
 20
2.548567
 21
2.552802
  0
LINE
  8
APS_GEOMETRY
 10
0.464881
 11
0.464769
 20
2.552802
 21
2.557026
  0
LINE
  8
APS_GEOMETRY
 10
0.464769
 11
0.464646
 20
2.557026
 21
2.561241
  0
LINE
  8
APS_GEOMETRY
 10
0.464646
 11
0.464511
 20
2.561241
 21
2.565445
  0
LINE
  8
APS_GEOMETRY
 10
0.464511
 11
0.464365
 20
2.565445
 21
2.569638
  0
LINE
  8
APS_GEOMETRY
 10
0.464365
 11
0.464206
 20
2.569638
 21
2.573821
  0
LINE
  8
APS_GEOMETRY
 10
0.464206
 11
0.464033
 20
2.573821
 21
2.577993
  0
LINE
  8
APS_GEOMETRY
 10
0.464033
 11
0.463848
 20
2.577993
 21
2.582153
  0
LINE
  8
APS_GEOMETRY
 10
0.463848
 11
0.463648
 20
2.582153
 21
2.586301
  0
LINE
  8
APS_GEOMETRY
 10
0.463648
 11
0.463433
 20
2.586301
 21
2.590437
  0
LINE
  8
APS_GEOMETRY
 10
0.463433
 11
0.463203
 20
2.590437
 21
2.594561
  0
LINE
  8
APS_GEOMETRY
 10
0.463203
 11
0.462956
 20
2.594561
 21
2.598673
  0
LINE
  8
APS_GEOMETRY
 10
0.462956
 11
0.462694
 20
2.598673
 21
2.602771
  0
LINE
  8
APS_GEOMETRY
 10
0.462694
 11
0.462414
 20
2.602771
 21
2.606856
  0
LINE
  8
APS_GEOMETRY
 10
0.462414
 11
0.462117
 20
2.606856
 21
2.610928
  0
LINE
  8
APS_GEOMETRY
 10
0.462117
 11
0.461802
 20
2.610928
 21
2.614985
  0
LINE
  8
APS_GEOMETRY
 10
0.461802
 11
0.461637
 20
2.614985
 21
2.617009
  0
LINE
  8
APS_GEOMETRY
 10
0.461637
 11
0.461468
 20
2.617009
 21
2.619029
  0
LINE
  8
APS_GEOMETRY
 10
0.461468
 11
0.461294
 20
2.619029
 21
2.621045
  0
LINE
  8
APS_GEOMETRY
 10
0.461294
 11
0.461115
 20
2.621045
 21
2.623058
  0
LINE
  8
APS_GEOMETRY
 10
0.461115
 11
0.460931
 20
2.623058
 21
2.625067
  0
LINE
  8
APS_GEOMETRY
 10
0.460931
 11
0.460742
 20
2.625067
 21
2.627072
  0
LINE
  8
APS_GEOMETRY
 10
0.460742
 11
0.460548
 20
2.627072
 21
2.629074
  0
LINE
  8
APS_GEOMETRY
 10
0.460548
 11
0.460348
 20
2.629074
 21
2.631072
  0
LINE
  8
APS_GEOMETRY
 10
0.460348
 11
0.460144
 20
2.631072
 21
2.633066
  0
LINE
  8
APS_GEOMETRY
 10
0.460144
 11
0.459934
 20
2.633066
 21
2.635056
  0
LINE
  8
APS_GEOMETRY
 10
0.459934
 11
0.459719
 20
2.635056
 21
2.637042
  0
LINE
  8
APS_GEOMETRY
 10
0.459719
 11
0.459498
 20
2.637042
 21
2.639025
  0
LINE
  8
APS_GEOMETRY
 10
0.459498
 11
0.459272
 20
2.639025
 21
2.641003
  0
LINE
  8
APS_GEOMETRY
 10
0.459272
 11
0.45904
 20
2.641003
 21
2.642977
  0
LINE
  8
APS_GEOMETRY
 10
0.45904
 11
0.458803
 20
2.642977
 21
2.644948
  0
LINE
  8
APS_GEOMETRY
 10
0.458803
 11
0.45856
 20
2.644948
 21
2.646914
  0
LINE
  8
APS_GEOMETRY
 10
0.45856
 11
0.458311
 20
2.646914
 21
2.648876
  0
LINE
  8
APS_GEOMETRY
 10
0.458311
 11
0.458056
 20
2.648876
 21
2.650834
  0
LINE
  8
APS_GEOMETRY
 10
0.458056
 11
0.457795
 20
2.650834
 21
2.652787
  0
LINE
  8
APS_GEOMETRY
 10
0.457795
 11
0.457528
 20
2.652787
 21
2.654737
  0
LINE
  8
APS_GEOMETRY
 10
0.457528
 11
0.457255
 20
2.654737
 21
2.656682
  0
LINE
  8
APS_GEOMETRY
 10
0.457255
 11
0.456976
 20
2.656682
 21
2.658623
  0
LINE
  8
APS_GEOMETRY
 10
0.456976
 11
0.456691
 20
2.658623
 21
2.66056
  0
LINE
  8
APS_GEOMETRY
 10
0.456691
 11
0.4564
 20
2.66056
 21
2.662492
  0
LINE
  8
APS_GEOMETRY
 10
0.4564
 11
0.456102
 20
2.662492
 21
2.664419
  0
LINE
  8
APS_GEOMETRY
 10
0.456102
 11
0.455798
 20
2.664419
 21
2.666343
  0
LINE
  8
APS_GEOMETRY
 10
0.455798
 11
0.455487
 20
2.666343
 21
2.668262
  0
LINE
  8
APS_GEOMETRY
 10
0.455487
 11
0.455169
 20
2.668262
 21
2.670176
  0
LINE
  8
APS_GEOMETRY
 10
0.455169
 11
0.454845
 20
2.670176
 21
2.672086
  0
LINE
  8
APS_GEOMETRY
 10
0.454845
 11
0.454515
 20
2.672086
 21
2.673991
  0
LINE
  8
APS_GEOMETRY
 10
0.454515
 11
0.454177
 20
2.673991
 21
2.675891
  0
LINE
  8
APS_GEOMETRY
 10
0.454177
 11
0.453833
 20
2.675891
 21
2.677787
  0
LINE
  8
APS_GEOMETRY
 10
0.453833
 11
0.453482
 20
2.677787
 21
2.679678
  0
LINE
  8
APS_GEOMETRY
 10
0.453482
 11
0.453124
 20
2.679678
 21
2.681565
  0
LINE
  8
APS_GEOMETRY
 10
0.453124
 11
0.452758
 20
2.681565
 21
2.683446
  0
LINE
  8
APS_GEOMETRY
 10
0.452758
 11
0.452386
 20
2.683446
 21
2.685323
  0
LINE
  8
APS_GEOMETRY
 10
0.452386
 11
0.452006
 20
2.685323
 21
2.687195
  0
LINE
  8
APS_GEOMETRY
 10
0.452006
 11
0.451619
 20
2.687195
 21
2.689062
  0
LINE
  8
APS_GEOMETRY
 10
0.451619
 11
0.451225
 20
2.689062
 21
2.690924
  0
LINE
  8
APS_GEOMETRY
 10
0.451225
 11
0.450824
 20
2.690924
 21
2.692781
  0
LINE
  8
APS_GEOMETRY
 10
0.450824
 11
0.450414
 20
2.692781
 21
2.694633
  0
LINE
  8
APS_GEOMETRY
 10
0.450414
 11
0.449998
 20
2.694633
 21
2.69648
  0
LINE
  8
APS_GEOMETRY
 10
0.449998
 11
0.449574
 20
2.69648
 21
2.698322
  0
LINE
  8
APS_GEOMETRY
 10
0.449574
 11
0.449142
 20
2.698322
 21
2.700159
  0
LINE
  8
APS_GEOMETRY
 10
0.449142
 11
0.448702
 20
2.700159
 21
2.701991
  0
LINE
  8
APS_GEOMETRY
 10
0.448702
 11
0.448254
 20
2.701991
 21
2.703817
  0
LINE
  8
APS_GEOMETRY
 10
0.448254
 11
0.447799
 20
2.703817
 21
2.705639
  0
LINE
  8
APS_GEOMETRY
 10
0.447799
 11
0.447335
 20
2.705639
 21
2.707455
  0
LINE
  8
APS_GEOMETRY
 10
0.447335
 11
0.446864
 20
2.707455
 21
2.709265
  0
LINE
  8
APS_GEOMETRY
 10
0.446864
 11
0.446384
 20
2.709265
 21
2.711071
  0
LINE
  8
APS_GEOMETRY
 10
0.446384
 11
0.445897
 20
2.711071
 21
2.712871
  0
LINE
  8
APS_GEOMETRY
 10
0.445897
 11
0.445401
 20
2.712871
 21
2.714665
  0
LINE
  8
APS_GEOMETRY
 10
0.445401
 11
0.444896
 20
2.714665
 21
2.716454
  0
LINE
  8
APS_GEOMETRY
 10
0.444896
 11
0.444384
 20
2.716454
 21
2.718238
  0
LINE
  8
APS_GEOMETRY
 10
0.444384
 11
0.443862
 20
2.718238
 21
2.720016
  0
LINE
  8
APS_GEOMETRY
 10
0.443862
 11
0.443333
 20
2.720016
 21
2.721789
  0
LINE
  8
APS_GEOMETRY
 10
0.443333
 11
0.442794
 20
2.721789
 21
2.723556
  0
LINE
  8
APS_GEOMETRY
 10
0.442794
 11
0.442247
 20
2.723556
 21
2.725317
  0
LINE
  8
APS_GEOMETRY
 10
0.442247
 11
0.441692
 20
2.725317
 21
2.727073
  0
LINE
  8
APS_GEOMETRY
 10
0.441692
 11
0.441127
 20
2.727073
 21
2.728823
  0
LINE
  8
APS_GEOMETRY
 10
0.441127
 11
0.440554
 20
2.728823
 21
2.730567
  0
LINE
  8
APS_GEOMETRY
 10
0.440554
 11
0.439971
 20
2.730567
 21
2.732306
  0
LINE
  8
APS_GEOMETRY
 10
0.439971
 11
0.43938
 20
2.732306
 21
2.734038
  0
LINE
  8
APS_GEOMETRY
 10
0.43938
 11
0.43878
 20
2.734038
 21
2.735765
  0
LINE
  8
APS_GEOMETRY
 10
0.43878
 11
0.43817
 20
2.735765
 21
2.737486
  0
LINE
  8
APS_GEOMETRY
 10
0.43817
 11
0.437551
 20
2.737486
 21
2.739201
  0
LINE
  8
APS_GEOMETRY
 10
0.437551
 11
0.436923
 20
2.739201
 21
2.74091
  0
LINE
  8
APS_GEOMETRY
 10
0.436923
 11
0.436285
 20
2.74091
 21
2.742613
  0
LINE
  8
APS_GEOMETRY
 10
0.436285
 11
0.435638
 20
2.742613
 21
2.74431
  0
LINE
  8
APS_GEOMETRY
 10
0.435638
 11
0.434982
 20
2.74431
 21
2.746001
  0
LINE
  8
APS_GEOMETRY
 10
0.434982
 11
0.434316
 20
2.746001
 21
2.747685
  0
LINE
  8
APS_GEOMETRY
 10
0.434316
 11
0.43364
 20
2.747685
 21
2.749364
  0
LINE
  8
APS_GEOMETRY
 10
0.43364
 11
0.432955
 20
2.749364
 21
2.751036
  0
LINE
  8
APS_GEOMETRY
 10
0.432955
 11
0.43226
 20
2.751036
 21
2.752703
  0
LINE
  8
APS_GEOMETRY
 10
0.43226
 11
0.431554
 20
2.752703
 21
2.754363
  0
LINE
  8
APS_GEOMETRY
 10
0.431554
 11
0.430839
 20
2.754363
 21
2.756016
  0
LINE
  8
APS_GEOMETRY
 10
0.430839
 11
0.430114
 20
2.756016
 21
2.757664
  0
LINE
  8
APS_GEOMETRY
 10
0.430114
 11
0.429379
 20
2.757664
 21
2.759305
  0
LINE
  8
APS_GEOMETRY
 10
0.429379
 11
0.428634
 20
2.759305
 21
2.760939
  0
LINE
  8
APS_GEOMETRY
 10
0.428634
 11
0.427879
 20
2.760939
 21
2.762567
  0
LINE
  8
APS_GEOMETRY
 10
0.427879
 11
0.427113
 20
2.762567
 21
2.764189
  0
LINE
  8
APS_GEOMETRY
 10
0.427113
 11
0.426337
 20
2.764189
 21
2.765804
  0
LINE
  8
APS_GEOMETRY
 10
0.426337
 11
0.42555
 20
2.765804
 21
2.767413
  0
LINE
  8
APS_GEOMETRY
 10
0.42555
 11
0.424753
 20
2.767413
 21
2.769015
  0
LINE
  8
APS_GEOMETRY
 10
0.424753
 11
0.423946
 20
2.769015
 21
2.77061
  0
LINE
  8
APS_GEOMETRY
 10
0.423946
 11
0.423127
 20
2.77061
 21
2.772199
  0
LINE
  8
APS_GEOMETRY
 10
0.423127
 11
0.422299
 20
2.772199
 21
2.773781
  0
LINE
  8
APS_GEOMETRY
 10
0.422299
 11
0.421459
 20
2.773781
 21
2.775356
  0
LINE
  8
APS_GEOMETRY
 10
0.421459
 11
0.420608
 20
2.775356
 21
2.776924
  0
LINE
  8
APS_GEOMETRY
 10
0.420608
 11
0.419747
 20
2.776924
 21
2.778486
  0
LINE
  8
APS_GEOMETRY
 10
0.419747
 11
0.418875
 20
2.778486
 21
2.780041
  0
LINE
  8
APS_GEOMETRY
 10
0.418875
 11
0.417991
 20
2.780041
 21
2.781589
  0
LINE
  8
APS_GEOMETRY
 10
0.417991
 11
0.417096
 20
2.781589
 21
2.78313
  0
LINE
  8
APS_GEOMETRY
 10
0.417096
 11
0.416191
 20
2.78313
 21
2.784664
  0
LINE
  8
APS_GEOMETRY
 10
0.416191
 11
0.415274
 20
2.784664
 21
2.786191
  0
LINE
  8
APS_GEOMETRY
 10
0.415274
 11
0.414345
 20
2.786191
 21
2.787711
  0
LINE
  8
APS_GEOMETRY
 10
0.414345
 11
0.413405
 20
2.787711
 21
2.789224
  0
LINE
  8
APS_GEOMETRY
 10
0.413405
 11
0.412454
 20
2.789224
 21
2.790729
  0
LINE
  8
APS_GEOMETRY
 10
0.412454
 11
0.411491
 20
2.790729
 21
2.792228
  0
LINE
  8
APS_GEOMETRY
 10
0.411491
 11
0.410517
 20
2.792228
 21
2.79372
  0
LINE
  8
APS_GEOMETRY
 10
0.410517
 11
0.409531
 20
2.79372
 21
2.795204
  0
LINE
  8
APS_GEOMETRY
 10
0.409531
 11
0.408533
 20
2.795204
 21
2.796681
  0
LINE
  8
APS_GEOMETRY
 10
0.408533
 11
0.407523
 20
2.796681
 21
2.798151
  0
LINE
  8
APS_GEOMETRY
 10
0.407523
 11
0.406502
 20
2.798151
 21
2.799613
  0
LINE
  8
APS_GEOMETRY
 10
0.406502
 11
0.405468
 20
2.799613
 21
2.801068
  0
LINE
  8
APS_GEOMETRY
 10
0.405468
 11
0.404423
 20
2.801068
 21
2.802516
  0
LINE
  8
APS_GEOMETRY
 10
0.404423
 11
0.403365
 20
2.802516
 21
2.803956
  0
LINE
  8
APS_GEOMETRY
 10
0.403365
 11
0.402295
 20
2.803956
 21
2.805389
  0
LINE
  8
APS_GEOMETRY
 10
0.402295
 11
0.401213
 20
2.805389
 21
2.806814
  0
LINE
  8
APS_GEOMETRY
 10
0.401213
 11
0.400119
 20
2.806814
 21
2.808232
  0
LINE
  8
APS_GEOMETRY
 10
0.400119
 11
0.399012
 20
2.808232
 21
2.809642
  0
LINE
  8
APS_GEOMETRY
 10
0.399012
 11
0.397892
 20
2.809642
 21
2.811044
  0
LINE
  8
APS_GEOMETRY
 10
0.397892
 11
0.396761
 20
2.811044
 21
2.812439
  0
LINE
  8
APS_GEOMETRY
 10
0.396761
 11
0.395616
 20
2.812439
 21
2.813826
  0
LINE
  8
APS_GEOMETRY
 10
0.395616
 11
0.394459
 20
2.813826
 21
2.815205
  0
LINE
  8
APS_GEOMETRY
 10
0.394459
 11
0.393289
 20
2.815205
 21
2.816577
  0
LINE
  8
APS_GEOMETRY
 10
0.393289
 11
0.392107
 20
2.816577
 21
2.817941
  0
LINE
  8
APS_GEOMETRY
 10
0.392107
 11
0.390911
 20
2.817941
 21
2.819297
  0
LINE
  8
APS_GEOMETRY
 10
0.390911
 11
0.389703
 20
2.819297
 21
2.820645
  0
LINE
  8
APS_GEOMETRY
 10
0.389703
 11
0.388482
 20
2.820645
 21
2.821985
  0
LINE
  8
APS_GEOMETRY
 10
0.388482
 11
0.387247
 20
2.821985
 21
2.823317
  0
LINE
  8
APS_GEOMETRY
 10
0.387247
 11
0.385999
 20
2.823317
 21
2.824641
  0
LINE
  8
APS_GEOMETRY
 10
0.385999
 11
0.384738
 20
2.824641
 21
2.825957
  0
LINE
  8
APS_GEOMETRY
 10
0.384738
 11
0.383464
 20
2.825957
 21
2.827265
  0
LINE
  8
APS_GEOMETRY
 10
0.383464
 11
0.382177
 20
2.827265
 21
2.828565
  0
LINE
  8
APS_GEOMETRY
 10
0.382177
 11
0.380876
 20
2.828565
 21
2.829857
  0
LINE
  8
APS_GEOMETRY
 10
0.380876
 11
0.379561
 20
2.829857
 21
2.831141
  0
LINE
  8
APS_GEOMETRY
 10
0.379561
 11
0.378233
 20
2.831141
 21
2.832416
  0
LINE
  8
APS_GEOMETRY
 10
0.378233
 11
0.376891
 20
2.832416
 21
2.833684
  0
LINE
  8
APS_GEOMETRY
 10
0.376891
 11
0.375536
 20
2.833684
 21
2.834943
  0
LINE
  8
APS_GEOMETRY
 10
0.375536
 11
0.374167
 20
2.834943
 21
2.836193
  0
LINE
  8
APS_GEOMETRY
 10
0.374167
 11
0.372784
 20
2.836193
 21
2.837435
  0
LINE
  8
APS_GEOMETRY
 10
0.372784
 11
0.371387
 20
2.837435
 21
2.838669
  0
LINE
  8
APS_GEOMETRY
 10
0.371387
 11
0.369976
 20
2.838669
 21
2.839895
  0
LINE
  8
APS_GEOMETRY
 10
0.369976
 11
0.368551
 20
2.839895
 21
2.841112
  0
LINE
  8
APS_GEOMETRY
 10
0.368551
 11
0.367111
 20
2.841112
 21
2.84232
  0
LINE
  8
APS_GEOMETRY
 10
0.367111
 11
0.365658
 20
2.84232
 21
2.84352
  0
LINE
  8
APS_GEOMETRY
 10
0.365658
 11
0.36419
 20
2.84352
 21
2.844711
  0
LINE
  8
APS_GEOMETRY
 10
0.36419
 11
0.362708
 20
2.844711
 21
2.845894
  0
LINE
  8
APS_GEOMETRY
 10
0.362708
 11
0.361212
 20
2.845894
 21
2.847068
  0
LINE
  8
APS_GEOMETRY
 10
0.361212
 11
0.359701
 20
2.847068
 21
2.848233
  0
LINE
  8
APS_GEOMETRY
 10
0.359701
 11
0.358175
 20
2.848233
 21
2.84939
  0
LINE
  8
APS_GEOMETRY
 10
0.358175
 11
0.356635
 20
2.84939
 21
2.850538
  0
LINE
  8
APS_GEOMETRY
 10
0.356635
 11
0.35508
 20
2.850538
 21
2.851677
  0
LINE
  8
APS_GEOMETRY
 10
0.35508
 11
0.353511
 20
2.851677
 21
2.852807
  0
LINE
  8
APS_GEOMETRY
 10
0.353511
 11
0.351926
 20
2.852807
 21
2.853928
  0
LINE
  8
APS_GEOMETRY
 10
0.351926
 11
0.350327
 20
2.853928
 21
2.855041
  0
LINE
  8
APS_GEOMETRY
 10
0.350327
 11
0.348713
 20
2.855041
 21
2.856144
  0
LINE
  8
APS_GEOMETRY
 10
0.348713
 11
0.347083
 20
2.856144
 21
2.857239
  0
LINE
  8
APS_GEOMETRY
 10
0.347083
 11
0.345439
 20
2.857239
 21
2.858324
  0
LINE
  8
APS_GEOMETRY
 10
0.345439
 11
0.343779
 20
2.858324
 21
2.8594
  0
LINE
  8
APS_GEOMETRY
 10
0.343779
 11
0.342104
 20
2.8594
 21
2.860468
  0
LINE
  8
APS_GEOMETRY
 10
0.342104
 11
0.340414
 20
2.860468
 21
2.861526
  0
LINE
  8
APS_GEOMETRY
 10
0.340414
 11
0.338708
 20
2.861526
 21
2.862575
  0
LINE
  8
APS_GEOMETRY
 10
0.338708
 11
0.336987
 20
2.862575
 21
2.863615
  0
LINE
  8
APS_GEOMETRY
 10
0.336987
 11
0.33525
 20
2.863615
 21
2.864645
  0
LINE
  8
APS_GEOMETRY
 10
0.33525
 11
0.333498
 20
2.864645
 21
2.865666
  0
LINE
  8
APS_GEOMETRY
 10
0.333498
 11
0.33173
 20
2.865666
 21
2.866678
  0
LINE
  8
APS_GEOMETRY
 10
0.33173
 11
0.329946
 20
2.866678
 21
2.867681
  0
LINE
  8
APS_GEOMETRY
 10
0.329946
 11
0.328147
 20
2.867681
 21
2.868674
  0
LINE
  8
APS_GEOMETRY
 10
0.328147
 11
0.326331
 20
2.868674
 21
2.869658
  0
LINE
  8
APS_GEOMETRY
 10
0.326331
 11
0.3245
 20
2.869658
 21
2.870632
  0
LINE
  8
APS_GEOMETRY
 10
0.3245
 11
0.322653
 20
2.870632
 21
2.871597
  0
LINE
  8
APS_GEOMETRY
 10
0.322653
 11
0.320789
 20
2.871597
 21
2.872552
  0
LINE
  8
APS_GEOMETRY
 10
0.320789
 11
0.318909
 20
2.872552
 21
2.873498
  0
LINE
  8
APS_GEOMETRY
 10
0.318909
 11
0.317013
 20
2.873498
 21
2.874434
  0
LINE
  8
APS_GEOMETRY
 10
0.317013
 11
0.315101
 20
2.874434
 21
2.87536
  0
LINE
  8
APS_GEOMETRY
 10
0.315101
 11
0.313173
 20
2.87536
 21
2.876277
  0
LINE
  8
APS_GEOMETRY
 10
0.313173
 11
0.311227
 20
2.876277
 21
2.877184
  0
LINE
  8
APS_GEOMETRY
 10
0.311227
 11
0.309266
 20
2.877184
 21
2.878081
  0
LINE
  8
APS_GEOMETRY
 10
0.309266
 11
0.307288
 20
2.878081
 21
2.878969
  0
LINE
  8
APS_GEOMETRY
 10
0.307288
 11
0.305293
 20
2.878969
 21
2.879846
  0
LINE
  8
APS_GEOMETRY
 10
0.305293
 11
0.303281
 20
2.879846
 21
2.880714
  0
LINE
  8
APS_GEOMETRY
 10
0.303281
 11
0.301253
 20
2.880714
 21
2.881572
  0
LINE
  8
APS_GEOMETRY
 10
0.301253
 11
0.299208
 20
2.881572
 21
2.88242
  0
LINE
  8
APS_GEOMETRY
 10
0.299208
 11
0.297146
 20
2.88242
 21
2.883257
  0
LINE
  8
APS_GEOMETRY
 10
0.297146
 11
0.295066
 20
2.883257
 21
2.884085
  0
LINE
  8
APS_GEOMETRY
 10
0.295066
 11
0.29297
 20
2.884085
 21
2.884903
  0
LINE
  8
APS_GEOMETRY
 10
0.29297
 11
0.290857
 20
2.884903
 21
2.885711
  0
LINE
  8
APS_GEOMETRY
 10
0.290857
 11
0.288726
 20
2.885711
 21
2.886508
  0
LINE
  8
APS_GEOMETRY
 10
0.288726
 11
0.286578
 20
2.886508
 21
2.887296
  0
LINE
  8
APS_GEOMETRY
 10
0.286578
 11
0.284413
 20
2.887296
 21
2.888073
  0
ARC
  8
APS_GEOMETRY
 10
0.2931
 20
2.912274
 40
0.025713
 50
185.404315
 51
250.254183
  0
LINE
  8
APS_GEOMETRY
 10
0.267501
 11
0.267501
 20
2.909852
 21
3.11
  0
LINE
  8
CONSTRUCTION
 10
0.152615
 11
0.10065
 20
-1.038482
 21
-1.166909
  0
LINE
  8
CONSTRUCTION
 10
0.10065
 11
0.20458
 20
-1.166909
 21
-1.166909
  0
LINE
  8
CONSTRUCTION
 10
0.20458
 11
0.152615
 20
-1.166909
 21
-1.038482
  0
LINE
  8
CONSTRUCTION
 10
0.152615
 11
0.559547
 20
-1.038482
 21
-1.03848
  0
LINE
  8
CONSTRUCTION
 10
0.559547
 11
0.507582
 20
-1.03848
 21
-1.166908
  0
LINE
  8
CONSTRUCTION
 10
0.507582
 11
0.611512
 20
-1.166908
 21
-1.166908
  0
LINE
  8
CONSTRUCTION
 10
0.611512
 11
0.559547
 20
-1.166908
 21
-1.03848
  0
LINE
  8
CONSTRUCTION
 10
0.559547
 11
0.966478
 20
-1.03848
 21
-1.03848
  0
LINE
  8
CONSTRUCTION
 10
0.966478
 11
0.914513
 20
-1.03848
 21
-1.166908
  0
LINE
  8
CONSTRUCTION
 10
0.914513
 11
1.018442
 20
-1.166908
 21
-1.166908
  0
LINE
  8
CONSTRUCTION
 10
1.018442
 11
0.966478
 20
-1.166908
 21
-1.03848
  0
LINE
  8
CONSTRUCTION
 10
0.966478
 11
1.373408
 20
-1.03848
 21
-1.03848
  0
LINE
  8
CONSTRUCTION
 10
1.373408
 11
1.321443
 20
-1.03848
 21
-1.166908
  0
LINE
  8
CONSTRUCTION
 10
1.321443
 11
1.425373
 20
-1.166908
 21
-1.166908
  0
LINE
  8
CONSTRUCTION
 10
1.425373
 11
1.373408
 20
-1.166908
 21
-1.03848
  0
LINE
  8
CONSTRUCTION
 10
1.373408
 11
1.780281
 20
-1.03848
 21
-1.038482
  0
LINE
  8
CONSTRUCTION
 10
1.780281
 11
1.728316
 20
-1.038482
 21
-1.166909
  0
LINE
  8
CONSTRUCTION
 10
1.728316
 11
1.832246
 20
-1.166909
 21
-1.166909
  0
LINE
  8
CONSTRUCTION
 10
1.832246
 11
1.780281
 20
-1.166909
 21
-1.038482
  0
LINE
  8
CONSTRUCTION
 10
0.0
 11
4.0
 20
-1.561751
 21
-1.561751
  0
TEXT
  8
TEXT
 10
0.10065
 20
-1.405784
 30
0.0
 40
0.224
 50
0.0
  1
DOVETAIL DESIGNS
  0
TEXT
  8
TEXT
 10
2.276036
 20
-1.551751
 30
0.0
 40
0.099
 50
0.0
  1
& MILLWORK INC.
  0
TEXT
  8
TEXT
 10
1.092458
 20
-1.640461
 30
0.0
 40
0.07
 50
0.0
  1
Established 1979
  0
TEXT
  8
TEXT
 10
0.1
 20
-1.8
 30
0.0
 40
0.1
 50
0.0
  1
Phone: (406) 248-5010    Website: www.dovetailmt.com
  0
TEXT
  8
TEXT
 10
0.0
 20
-0.5
 30
0.0
 40
0.1
 50
0.0
  1
11/16"x3-1/8"
  0
TEXT
  8
TEXT
 10
0.0
 20
-0.25
 30
0.0
 40
0.15625
 50
0.0
  1
B161
  0
ENDSEC
  0
EOF
