  0
SECTION
  2
ENTITIES
  0
ARC
  8
APS_GEOMETRY
 10
0.725
 20
1.966697
 40
0.025
 50
308.193422
 51
0.0
  0
LINE
  8
APS_GEOMETRY
 10
0.75
 11
0.75
 20
1.966697
 21
4.745444
  0
ARC
  8
APS_GEOMETRY
 10
0.675
 20
4.745444
 40
0.075
 50
0.0
 51
64.255829
  0
ARC
  8
APS_GEOMETRY
 10
0.486735
 20
4.355032
 40
0.508434
 50
64.255708
 51
83.30626
  0
LINE
  8
APS_GEOMETRY
 10
0.546
 11
0.546
 20
4.86
 21
4.975
  0
ARC
  8
APS_GEOMETRY
 10
0.481366
 20
4.97308
 40
0.064663
 50
1.701368
 51
73.250801
  0
LINE
  8
APS_GEOMETRY
 10
0.5
 11
0.5
 20
5.035
 21
5.285
  0
ARC
  8
APS_GEOMETRY
 10
0.497492
 20
5.418585
 40
0.133609
 50
271.075466
 51
331.581391
  0
ARC
  8
APS_GEOMETRY
 10
0.603733
 20
5.575835
 40
0.221123
 50
272.920785
 51
308.193687
  0
ARC
  8
APS_GEOMETRY
 10
0.725
 20
5.421697
 40
0.025
 50
308.19463
 51
359.999681
  0
LINE
  8
APS_GEOMETRY
 10
0.75
 11
0.75
 20
5.421697
 21
6.125
  0
LINE
  8
APS_GEOMETRY
 10
0.75
 11
0.0
 20
6.125
 21
6.125
  0
LINE
  8
APS_GEOMETRY
 10
0.0
 11
0.0
 20
6.125
 21
0.0
  0
LINE
  8
APS_GEOMETRY
 10
0.0
 11
0.75
 20
0.0
 21
0.0
  0
LINE
  8
APS_GEOMETRY
 10
0.75
 11
0.75
 20
0.0
 21
1.290444
  0
ARC
  8
APS_GEOMETRY
 10
0.675
 20
1.290444
 40
0.075
 50
0.0
 51
64.255829
  0
ARC
  8
APS_GEOMETRY
 10
0.486735
 20
0.900032
 40
0.508434
 50
64.255708
 51
83.30626
  0
LINE
  8
APS_GEOMETRY
 10
0.546
 11
0.546
 20
1.405
 21
1.52
  0
ARC
  8
APS_GEOMETRY
 10
0.481365
 20
1.518081
 40
0.064663
 50
1.700474
 51
73.250774
  0
LINE
  8
APS_GEOMETRY
 10
0.5
 11
0.5
 20
1.580001
 21
1.83
  0
ARC
  8
APS_GEOMETRY
 10
0.497492
 20
1.963585
 40
0.133609
 50
271.075466
 51
331.581391
  0
ARC
  8
APS_GEOMETRY
 10
0.603733
 20
2.120835
 40
0.221123
 50
272.920736
 51
308.193488
  0
LINE
  8
CONSTRUCTION
 10
0.152615
 11
0.10065
 20
-1.038482
 21
-1.166909
  0
LINE
  8
CONSTRUCTION
 10
0.10065
 11
0.20458
 20
-1.166909
 21
-1.166909
  0
LINE
  8
CONSTRUCTION
 10
0.20458
 11
0.152615
 20
-1.166909
 21
-1.038482
  0
LINE
  8
CONSTRUCTION
 10
0.152615
 11
0.559547
 20
-1.038482
 21
-1.03848
  0
LINE
  8
CONSTRUCTION
 10
0.559547
 11
0.507582
 20
-1.03848
 21
-1.166908
  0
LINE
  8
CONSTRUCTION
 10
0.507582
 11
0.611512
 20
-1.166908
 21
-1.166908
  0
LINE
  8
CONSTRUCTION
 10
0.611512
 11
0.559547
 20
-1.166908
 21
-1.03848
  0
LINE
  8
CONSTRUCTION
 10
0.559547
 11
0.966478
 20
-1.03848
 21
-1.03848
  0
LINE
  8
CONSTRUCTION
 10
0.966478
 11
0.914513
 20
-1.03848
 21
-1.166908
  0
LINE
  8
CONSTRUCTION
 10
0.914513
 11
1.018442
 20
-1.166908
 21
-1.166908
  0
LINE
  8
CONSTRUCTION
 10
1.018442
 11
0.966478
 20
-1.166908
 21
-1.03848
  0
LINE
  8
CONSTRUCTION
 10
0.966478
 11
1.373408
 20
-1.03848
 21
-1.03848
  0
LINE
  8
CONSTRUCTION
 10
1.373408
 11
1.321443
 20
-1.03848
 21
-1.166908
  0
LINE
  8
CONSTRUCTION
 10
1.321443
 11
1.425373
 20
-1.166908
 21
-1.166908
  0
LINE
  8
CONSTRUCTION
 10
1.425373
 11
1.373408
 20
-1.166908
 21
-1.03848
  0
LINE
  8
CONSTRUCTION
 10
1.373408
 11
1.780281
 20
-1.03848
 21
-1.038482
  0
LINE
  8
CONSTRUCTION
 10
1.780281
 11
1.728316
 20
-1.038482
 21
-1.166909
  0
LINE
  8
CONSTRUCTION
 10
1.728316
 11
1.832246
 20
-1.166909
 21
-1.166909
  0
LINE
  8
CONSTRUCTION
 10
1.832246
 11
1.780281
 20
-1.166909
 21
-1.038482
  0
LINE
  8
CONSTRUCTION
 10
0.0
 11
4.0
 20
-1.561751
 21
-1.561751
  0
TEXT
  8
TEXT
 10
0.10065
 20
-1.405784
 30
0.0
 40
0.224
 50
0.0
  1
DOVETAIL DESIGNS
  0
TEXT
  8
TEXT
 10
2.276036
 20
-1.551751
 30
0.0
 40
0.099
 50
0.0
  1
& MILLWORK INC.
  0
TEXT
  8
TEXT
 10
1.092458
 20
-1.640461
 30
0.0
 40
0.07
 50
0.0
  1
Established 1979
  0
TEXT
  8
TEXT
 10
0.1
 20
-1.8
 30
0.0
 40
0.1
 50
0.0
  1
Phone: (406) 248-5010    Website: www.dovetailmt.com
  0
TEXT
  8
TEXT
 10
0.0
 20
-0.25
 30
0.0
 40
0.15625
 50
0.0
  1
B151
  0
TEXT
  8
TEXT
 10
0.0
 20
-0.5
 30
0.0
 40
0.1
 50
0.0
  1
3/4"x6-1/8"
  0
ENDSEC
  0
EOF
