  0
SECTION
  2
ENTITIES
  0
ARC
  8
APS_GEOMETRY
 10
0.109375
 20
5.140625
 40
0.25
 50
4.850103
 51
69.635865
  0
LINE
  8
APS_GEOMETRY
 10
0.196371
 11
0.0
 20
5.375
 21
5.375
  0
LINE
  8
APS_GEOMETRY
 10
0.0
 11
0.0
 20
5.375
 21
0.0
  0
LINE
  8
APS_GEOMETRY
 10
0.0
 11
0.625
 20
0.0
 21
0.0
  0
LINE
  8
APS_GEOMETRY
 10
0.625
 11
0.625
 20
0.0
 21
2.25
  0
ARC
  8
APS_GEOMETRY
 10
0.53125
 20
2.25
 40
0.09375
 50
0.0
 51
90.0
  0
LINE
  8
APS_GEOMETRY
 10
0.53125
 11
0.515625
 20
2.34375
 21
2.34375
  0
ARC
  8
APS_GEOMETRY
 10
-0.533992
 20
2.822066
 40
1.153465
 50
335.50099
 51
345.520206
  0
ARC
  8
APS_GEOMETRY
 10
-0.359996
 20
2.777133
 40
0.973761
 50
345.520218
 51
355.455315
  0
ARC
  8
APS_GEOMETRY
 10
-0.388116
 20
2.779362
 40
1.001969
 50
355.455633
 51
4.013144
  0
ARC
  8
APS_GEOMETRY
 10
-0.806819
 20
2.750003
 40
1.4217
 50
4.012514
 51
10.067932
  0
ARC
  8
APS_GEOMETRY
 10
-1.677422
 20
2.595392
 40
2.305926
 50
10.068811
 51
12.778226
  0
ARC
  8
APS_GEOMETRY
 10
-12.197283
 20
0.209707
 40
13.092907
 50
12.777522
 51
13.427611
  0
LINE
  8
APS_GEOMETRY
 10
0.537717
 11
0.484456
 20
3.250098
 21
3.468458
  0
ARC
  8
APS_GEOMETRY
 10
5.198013
 20
4.620768
 40
4.852364
 50
188.514046
 51
193.737496
  0
ARC
  8
APS_GEOMETRY
 10
2.442544
 20
4.208268
 40
2.06619
 50
176.261859
 51
188.513993
  0
ARC
  8
APS_GEOMETRY
 10
3.318041
 20
4.151073
 40
2.943553
 50
170.730237
 51
176.26199
  0
ARC
  8
APS_GEOMETRY
 10
2.588292
 20
4.270179
 40
2.204148
 50
166.157041
 51
170.73023
  0
ARC
  8
APS_GEOMETRY
 10
0.387478
 20
4.8125
 40
0.0625
 50
346.157365
 51
89.999089
  0
LINE
  8
APS_GEOMETRY
 10
0.387479
 11
0.382813
 20
4.875
 21
4.875
  0
LINE
  8
APS_GEOMETRY
 10
0.382813
 11
0.35848
 20
4.875
 21
5.161762
  0
LINE
  8
CONSTRUCTION
 10
0.152615
 11
0.10065
 20
-1.038482
 21
-1.166909
  0
LINE
  8
CONSTRUCTION
 10
0.10065
 11
0.20458
 20
-1.166909
 21
-1.166909
  0
LINE
  8
CONSTRUCTION
 10
0.20458
 11
0.152615
 20
-1.166909
 21
-1.038482
  0
LINE
  8
CONSTRUCTION
 10
0.152615
 11
0.559547
 20
-1.038482
 21
-1.03848
  0
LINE
  8
CONSTRUCTION
 10
0.559547
 11
0.507582
 20
-1.03848
 21
-1.166908
  0
LINE
  8
CONSTRUCTION
 10
0.507582
 11
0.611512
 20
-1.166908
 21
-1.166908
  0
LINE
  8
CONSTRUCTION
 10
0.611512
 11
0.559547
 20
-1.166908
 21
-1.03848
  0
LINE
  8
CONSTRUCTION
 10
0.559547
 11
0.966478
 20
-1.03848
 21
-1.03848
  0
LINE
  8
CONSTRUCTION
 10
0.966478
 11
0.914513
 20
-1.03848
 21
-1.166908
  0
LINE
  8
CONSTRUCTION
 10
0.914513
 11
1.018442
 20
-1.166908
 21
-1.166908
  0
LINE
  8
CONSTRUCTION
 10
1.018442
 11
0.966478
 20
-1.166908
 21
-1.03848
  0
LINE
  8
CONSTRUCTION
 10
0.966478
 11
1.373408
 20
-1.03848
 21
-1.03848
  0
LINE
  8
CONSTRUCTION
 10
1.373408
 11
1.321443
 20
-1.03848
 21
-1.166908
  0
LINE
  8
CONSTRUCTION
 10
1.321443
 11
1.425373
 20
-1.166908
 21
-1.166908
  0
LINE
  8
CONSTRUCTION
 10
1.425373
 11
1.373408
 20
-1.166908
 21
-1.03848
  0
LINE
  8
CONSTRUCTION
 10
1.373408
 11
1.780281
 20
-1.03848
 21
-1.038482
  0
LINE
  8
CONSTRUCTION
 10
1.780281
 11
1.728316
 20
-1.038482
 21
-1.166909
  0
LINE
  8
CONSTRUCTION
 10
1.728316
 11
1.832246
 20
-1.166909
 21
-1.166909
  0
LINE
  8
CONSTRUCTION
 10
1.832246
 11
1.780281
 20
-1.166909
 21
-1.038482
  0
LINE
  8
CONSTRUCTION
 10
0.0
 11
4.0
 20
-1.561751
 21
-1.561751
  0
TEXT
  8
TEXT
 10
0.10065
 20
-1.405784
 30
0.0
 40
0.224
 50
0.0
  1
DOVETAIL DESIGNS
  0
TEXT
  8
TEXT
 10
2.276036
 20
-1.551751
 30
0.0
 40
0.099
 50
0.0
  1
& MILLWORK INC.
  0
TEXT
  8
TEXT
 10
1.092458
 20
-1.640461
 30
0.0
 40
0.07
 50
0.0
  1
Established 1979
  0
TEXT
  8
TEXT
 10
0.1
 20
-1.8
 30
0.0
 40
0.1
 50
0.0
  1
Phone: (406) 248-5010    Website: www.dovetailmt.com
  0
TEXT
  8
TEXT
 10
0.0
 20
-0.5
 30
0.0
 40
0.1
 50
0.0
  1
5/8"x5-3/8"
  0
TEXT
  8
TEXT
 10
0.0
 20
-0.25
 30
0.0
 40
0.15625
 50
0.0
  1
B146
  0
ENDSEC
  0
EOF
