  0
SECTION
  2
ENTITIES
  0
ARC
  8
MOULD-NEW
 10
-0.03125
 20
4.286612
 40
0.09375
 50
0.0
 51
70.528779
  0
LINE
  8
MOULD-NEW
 10
0.0
 11
0.0
 20
4.375
 21
5.375
  0
LINE
  8
MOULD-NEW
 10
0.0
 11
0.125
 20
5.375
 21
5.375
  0
ARC
  8
MOULD-NEW
 10
0.642578
 20
5.375
 40
0.517578
 50
180.0
 51
211.890792
  0
ARC
  8
MOULD-NEW
 10
-0.236328
 20
4.828125
 40
0.517578
 50
359.999992
 51
31.8908
  0
LINE
  8
MOULD-NEW
 10
0.28125
 11
0.28125
 20
4.828125
 21
4.71875
  0
ARC
  8
MOULD-NEW
 10
0.378906
 20
4.71875
 40
0.097656
 50
180.0
 51
233.130102
  0
ARC
  8
MOULD-NEW
 10
0.261719
 20
4.5625
 40
0.097656
 50
359.999853
 51
53.130249
  0
LINE
  8
MOULD-NEW
 10
0.359375
 11
0.359375
 20
4.5625
 21
4.0625
  0
ARC
  8
MOULD-NEW
 10
0.481027
 20
4.0625
 40
0.121652
 50
180.0
 51
236.601512
  0
ARC
  8
MOULD-NEW
 10
0.347098
 20
3.859375
 40
0.121652
 50
0.000109
 51
56.601402
  0
ARC
  8
MOULD-NEW
 10
1.992187
 20
3.859375
 40
1.523437
 50
180.0
 51
194.250033
  0
ARC
  8
MOULD-NEW
 10
-1.58087
 20
2.793577
 40
2.207373
 50
344.063663
 51
18.237133
  0
LINE
  8
MOULD-NEW
 10
0.541667
 11
0.625
 20
2.1875
 21
2.139387
  0
ARC
  8
MOULD-NEW
 10
0.5625
 20
2.031134
 40
0.125
 50
0.00008
 51
60.0
  0
LINE
  8
MOULD-NEW
 10
0.6875
 11
0.6875
 20
2.031134
 21
0.0
  0
LINE
  8
MOULD-NEW
 10
0.6875
 11
0.0
 20
0.0
 21
0.0
  0
LINE
  8
MOULD-NEW
 10
0.0
 11
0.0
 20
0.0
 21
1.875
  0
ARC
  8
MOULD-NEW
 10
-0.03125
 20
1.963388
 40
0.09375
 50
289.471221
 51
359.999788
  0
LINE
  8
MOULD-NEW
 10
0.0625
 11
0.0625
 20
1.963388
 21
4.286612
  0
LINE
  8
CONSTRUCTION
 10
0.152615
 11
0.10065
 20
-1.038482
 21
-1.166909
  0
LINE
  8
CONSTRUCTION
 10
0.10065
 11
0.20458
 20
-1.166909
 21
-1.166909
  0
LINE
  8
CONSTRUCTION
 10
0.20458
 11
0.152615
 20
-1.166909
 21
-1.038482
  0
LINE
  8
CONSTRUCTION
 10
0.152615
 11
0.559547
 20
-1.038482
 21
-1.03848
  0
LINE
  8
CONSTRUCTION
 10
0.559547
 11
0.507582
 20
-1.03848
 21
-1.166908
  0
LINE
  8
CONSTRUCTION
 10
0.507582
 11
0.611512
 20
-1.166908
 21
-1.166908
  0
LINE
  8
CONSTRUCTION
 10
0.611512
 11
0.559547
 20
-1.166908
 21
-1.03848
  0
LINE
  8
CONSTRUCTION
 10
0.559547
 11
0.966478
 20
-1.03848
 21
-1.03848
  0
LINE
  8
CONSTRUCTION
 10
0.966478
 11
0.914513
 20
-1.03848
 21
-1.166908
  0
LINE
  8
CONSTRUCTION
 10
0.914513
 11
1.018442
 20
-1.166908
 21
-1.166908
  0
LINE
  8
CONSTRUCTION
 10
1.018442
 11
0.966478
 20
-1.166908
 21
-1.03848
  0
LINE
  8
CONSTRUCTION
 10
0.966478
 11
1.373408
 20
-1.03848
 21
-1.03848
  0
LINE
  8
CONSTRUCTION
 10
1.373408
 11
1.321443
 20
-1.03848
 21
-1.166908
  0
LINE
  8
CONSTRUCTION
 10
1.321443
 11
1.425373
 20
-1.166908
 21
-1.166908
  0
LINE
  8
CONSTRUCTION
 10
1.425373
 11
1.373408
 20
-1.166908
 21
-1.03848
  0
LINE
  8
CONSTRUCTION
 10
1.373408
 11
1.780281
 20
-1.03848
 21
-1.038482
  0
LINE
  8
CONSTRUCTION
 10
1.780281
 11
1.728316
 20
-1.038482
 21
-1.166909
  0
LINE
  8
CONSTRUCTION
 10
1.728316
 11
1.832246
 20
-1.166909
 21
-1.166909
  0
LINE
  8
CONSTRUCTION
 10
1.832246
 11
1.780281
 20
-1.166909
 21
-1.038482
  0
LINE
  8
CONSTRUCTION
 10
0.0
 11
4.0
 20
-1.561751
 21
-1.561751
  0
TEXT
  8
TEXT
 10
0.10065
 20
-1.405784
 30
0.0
 40
0.224
 50
0.0
  1
DOVETAIL DESIGNS
  0
TEXT
  8
TEXT
 10
2.276036
 20
-1.551751
 30
0.0
 40
0.099
 50
0.0
  1
& MILLWORK INC.
  0
TEXT
  8
TEXT
 10
1.092458
 20
-1.640461
 30
0.0
 40
0.07
 50
0.0
  1
Established 1979
  0
TEXT
  8
TEXT
 10
0.1
 20
-1.8
 30
0.0
 40
0.1
 50
0.0
  1
Phone: (406) 248-5010    Website: www.dovetailmt.com
  0
TEXT
  8
TEXT
 10
0.0
 20
-0.25
 30
0.0
 40
0.15625
 50
0.0
  1
B145
  0
TEXT
  8
TEXT
 10
0.0
 20
-0.5
 30
0.0
 40
0.1
 50
0.0
  1
11/16"x5-3/8"
  0
ENDSEC
  0
EOF
