  0
SECTION
  2
ENTITIES
  0
ARC
  8
APS_GEOMETRY
 10
0.3125
 20
5.144214
 40
0.03125
 50
0.0
 51
40.749054
  0
ARC
  8
APS_GEOMETRY
 10
0.507813
 20
5.312501
 40
0.226563
 50
180.000148
 51
220.749007
  0
ARC
  8
APS_GEOMETRY
 10
0.21875
 20
5.3125
 40
0.0625
 50
0.0
 51
90.0
  0
LINE
  8
APS_GEOMETRY
 10
0.21875
 11
0.0
 20
5.375
 21
5.375
  0
LINE
  8
APS_GEOMETRY
 10
0.0
 11
0.0
 20
5.375
 21
4.875
  0
ARC
  8
APS_GEOMETRY
 10
-0.03125
 20
4.786612
 40
0.09375
 50
0.000212
 51
70.528779
  0
LINE
  8
APS_GEOMETRY
 10
0.0625
 11
0.0625
 20
4.786612
 21
3.338388
  0
ARC
  8
APS_GEOMETRY
 10
-0.03125
 20
3.338388
 40
0.09375
 50
289.471221
 51
0.0
  0
LINE
  8
APS_GEOMETRY
 10
0.0
 11
0.0
 20
3.25
 21
2.75
  0
ARC
  8
APS_GEOMETRY
 10
-0.03125
 20
2.661612
 40
0.09375
 50
0.000212
 51
70.528779
  0
LINE
  8
APS_GEOMETRY
 10
0.0625
 11
0.0625
 20
2.661612
 21
1.588388
  0
ARC
  8
APS_GEOMETRY
 10
-0.03125
 20
1.588388
 40
0.09375
 50
289.471221
 51
0.0
  0
LINE
  8
APS_GEOMETRY
 10
0.0
 11
0.0
 20
1.5
 21
0.0
  0
LINE
  8
APS_GEOMETRY
 10
0.0
 11
0.5625
 20
0.0
 21
0.0
  0
LINE
  8
APS_GEOMETRY
 10
0.5625
 11
0.5625
 20
0.0
 21
4.125
  0
ARC
  8
APS_GEOMETRY
 10
0.341211
 20
4.125
 40
0.221289
 50
0.0
 51
13.921491
  0
ARC
  8
APS_GEOMETRY
 10
0.421165
 20
4.144821
 40
0.138915
 50
13.920564
 51
34.252204
  0
ARC
  8
APS_GEOMETRY
 10
1.421866
 20
4.826259
 40
1.071771
 50
210.759778
 51
214.253466
  0
ARC
  8
APS_GEOMETRY
 10
0.563465
 20
4.315367
 40
0.07284
 50
182.021566
 51
210.760544
  0
LINE
  8
APS_GEOMETRY
 10
0.49067
 11
0.515623
 20
4.312797
 21
4.414792
  0
ARC
  8
APS_GEOMETRY
 10
0.377537
 20
4.453859
 40
0.143506
 50
344.202759
 51
4.505452
  0
ARC
  8
APS_GEOMETRY
 10
0.388121
 20
4.454696
 40
0.132889
 50
4.504283
 51
26.642405
  0
ARC
  8
APS_GEOMETRY
 10
1.709319
 20
5.11757
 40
1.345274
 50
203.984622
 51
206.6441
  0
ARC
  8
APS_GEOMETRY
 10
0.574719
 20
4.612775
 40
0.103447
 50
182.287707
 51
203.982845
  0
ARC
  8
APS_GEOMETRY
 10
0.63201
 20
4.615068
 40
0.160784
 50
168.16708
 51
182.28907
  0
ARC
  8
APS_GEOMETRY
 10
1.376927
 20
4.459005
 40
0.921873
 50
164.253551
 51
168.167409
  0
ARC
  8
APS_GEOMETRY
 10
-0.241054
 20
4.915232
 40
0.7592
 50
344.252323
 51
348.923505
  0
ARC
  8
APS_GEOMETRY
 10
0.275815
 20
4.814045
 40
0.232519
 50
348.923945
 51
0.774929
  0
ARC
  8
APS_GEOMETRY
 10
0.316944
 20
4.8146
 40
0.191386
 50
0.775151
 51
17.650093
  0
ARC
  8
APS_GEOMETRY
 10
0.394726
 20
4.839349
 40
0.109762
 50
17.649886
 51
42.203696
  0
LINE
  8
APS_GEOMETRY
 10
0.476033
 11
0.392035
 20
4.913084
 21
4.975802
  0
ARC
  8
APS_GEOMETRY
 10
0.480226
 20
5.089559
 40
0.143938
 50
210.836565
 51
232.215085
  0
ARC
  8
APS_GEOMETRY
 10
0.4349
 20
5.0625
 40
0.09115
 50
180.000101
 51
210.836753
  0
LINE
  8
APS_GEOMETRY
 10
0.34375
 11
0.34375
 20
5.0625
 21
5.144214
  0
LINE
  8
CONSTRUCTION
 10
0.152615
 11
0.10065
 20
-1.038482
 21
-1.166909
  0
LINE
  8
CONSTRUCTION
 10
0.10065
 11
0.20458
 20
-1.166909
 21
-1.166909
  0
LINE
  8
CONSTRUCTION
 10
0.20458
 11
0.152615
 20
-1.166909
 21
-1.038482
  0
LINE
  8
CONSTRUCTION
 10
0.152615
 11
0.559547
 20
-1.038482
 21
-1.03848
  0
LINE
  8
CONSTRUCTION
 10
0.559547
 11
0.507582
 20
-1.03848
 21
-1.166908
  0
LINE
  8
CONSTRUCTION
 10
0.507582
 11
0.611512
 20
-1.166908
 21
-1.166908
  0
LINE
  8
CONSTRUCTION
 10
0.611512
 11
0.559547
 20
-1.166908
 21
-1.03848
  0
LINE
  8
CONSTRUCTION
 10
0.559547
 11
0.966478
 20
-1.03848
 21
-1.03848
  0
LINE
  8
CONSTRUCTION
 10
0.966478
 11
0.914513
 20
-1.03848
 21
-1.166908
  0
LINE
  8
CONSTRUCTION
 10
0.914513
 11
1.018442
 20
-1.166908
 21
-1.166908
  0
LINE
  8
CONSTRUCTION
 10
1.018442
 11
0.966478
 20
-1.166908
 21
-1.03848
  0
LINE
  8
CONSTRUCTION
 10
0.966478
 11
1.373408
 20
-1.03848
 21
-1.03848
  0
LINE
  8
CONSTRUCTION
 10
1.373408
 11
1.321443
 20
-1.03848
 21
-1.166908
  0
LINE
  8
CONSTRUCTION
 10
1.321443
 11
1.425373
 20
-1.166908
 21
-1.166908
  0
LINE
  8
CONSTRUCTION
 10
1.425373
 11
1.373408
 20
-1.166908
 21
-1.03848
  0
LINE
  8
CONSTRUCTION
 10
1.373408
 11
1.780281
 20
-1.03848
 21
-1.038482
  0
LINE
  8
CONSTRUCTION
 10
1.780281
 11
1.728316
 20
-1.038482
 21
-1.166909
  0
LINE
  8
CONSTRUCTION
 10
1.728316
 11
1.832246
 20
-1.166909
 21
-1.166909
  0
LINE
  8
CONSTRUCTION
 10
1.832246
 11
1.780281
 20
-1.166909
 21
-1.038482
  0
LINE
  8
CONSTRUCTION
 10
0.0
 11
4.0
 20
-1.561751
 21
-1.561751
  0
TEXT
  8
TEXT
 10
0.10065
 20
-1.405784
 30
0.0
 40
0.224
 50
0.0
  1
DOVETAIL DESIGNS
  0
TEXT
  8
TEXT
 10
2.276036
 20
-1.551751
 30
0.0
 40
0.099
 50
0.0
  1
& MILLWORK INC.
  0
TEXT
  8
TEXT
 10
1.092458
 20
-1.640461
 30
0.0
 40
0.07
 50
0.0
  1
Established 1979
  0
TEXT
  8
TEXT
 10
0.1
 20
-1.8
 30
0.0
 40
0.1
 50
0.0
  1
Phone: (406) 248-5010    Website: www.dovetailmt.com
  0
TEXT
  8
TEXT
 10
0.0
 20
-0.5
 30
0.0
 40
0.1
 50
0.0
  1
9/16"x5-3/8"
  0
TEXT
  8
TEXT
 10
0.0
 20
-0.25
 30
0.0
 40
0.15625
 50
0.0
  1
B144
  0
ENDSEC
  0
EOF
