  0
SECTION
  2
ENTITIES
  0
ARC
  8
APS_GEOMETRY
 10
0.71875
 20
1.65625
 40
0.09375
 50
180.0
 51
270.0
  0
LINE
  8
APS_GEOMETRY
 10
0.71875
 11
0.75
 20
1.5625
 21
1.5625
  0
LINE
  8
APS_GEOMETRY
 10
0.75
 11
0.75
 20
1.5625
 21
0.0
  0
LINE
  8
APS_GEOMETRY
 10
0.75
 11
0.0
 20
0.0
 21
0.0
  0
LINE
  8
APS_GEOMETRY
 10
0.0
 11
0.0
 20
0.0
 21
0.75
  0
ARC
  8
APS_GEOMETRY
 10
-0.03125
 20
0.838388
 40
0.09375
 50
289.471221
 51
359.999788
  0
LINE
  8
APS_GEOMETRY
 10
0.0625
 11
0.0625
 20
0.838388
 21
1.411612
  0
ARC
  8
APS_GEOMETRY
 10
-0.03125
 20
1.411612
 40
0.09375
 50
0.0
 51
70.528779
  0
LINE
  8
APS_GEOMETRY
 10
0.0
 11
0.0
 20
1.5
 21
2.0
  0
ARC
  8
APS_GEOMETRY
 10
-0.03125
 20
2.088388
 40
0.09375
 50
289.471221
 51
359.999788
  0
LINE
  8
APS_GEOMETRY
 10
0.0625
 11
0.0625
 20
2.088388
 21
2.661612
  0
ARC
  8
APS_GEOMETRY
 10
-0.03125
 20
2.661612
 40
0.09375
 50
0.0
 51
70.528779
  0
LINE
  8
APS_GEOMETRY
 10
0.0
 11
0.0
 20
2.75
 21
3.5
  0
LINE
  8
APS_GEOMETRY
 10
0.0
 11
0.21875
 20
3.5
 21
3.5
  0
ARC
  8
APS_GEOMETRY
 10
1.490372
 20
3.5
 40
1.271622
 50
180.0
 51
183.186313
  0
ARC
  8
APS_GEOMETRY
 10
1.457461
 20
3.498169
 40
1.23866
 50
183.18636
 51
186.414795
  0
ARC
  8
APS_GEOMETRY
 10
1.425417
 20
3.494566
 40
1.206414
 50
186.414801
 51
189.729214
  0
ARC
  8
APS_GEOMETRY
 10
1.335304
 20
3.479117
 40
1.114986
 50
189.729287
 51
193.176911
  0
ARC
  8
APS_GEOMETRY
 10
1.279514
 20
3.466057
 40
1.057688
 50
193.177007
 51
196.810596
  0
ARC
  8
APS_GEOMETRY
 10
1.15525
 20
3.42851
 40
0.927875
 50
196.810301
 51
200.689765
  0
ARC
  8
APS_GEOMETRY
 10
1.089611
 20
3.403718
 40
0.857711
 50
200.689601
 51
204.884559
  0
ARC
  8
APS_GEOMETRY
 10
0.961182
 20
3.344147
 40
0.716138
 50
204.884687
 51
209.475762
  0
ARC
  8
APS_GEOMETRY
 10
0.900696
 20
3.309961
 40
0.64666
 50
209.475948
 51
214.555983
  0
ARC
  8
APS_GEOMETRY
 10
0.795376
 20
3.237419
 40
0.518775
 50
214.555404
 51
220.2276
  0
ARC
  8
APS_GEOMETRY
 10
0.751386
 20
3.200214
 40
0.461161
 50
220.228135
 51
226.599378
  0
ARC
  8
APS_GEOMETRY
 10
0.685123
 20
3.130147
 40
0.364724
 50
226.599652
 51
233.764899
  0
ARC
  8
APS_GEOMETRY
 10
0.66187
 20
3.098411
 40
0.325381
 50
233.764317
 51
241.77771
  0
ARC
  8
APS_GEOMETRY
 10
0.634656
 20
3.047709
 40
0.267837
 50
241.77831
 51
250.612214
  0
ARC
  8
APS_GEOMETRY
 10
0.628223
 20
3.02942
 40
0.248449
 50
250.611313
 51
260.114688
  0
ARC
  8
APS_GEOMETRY
 10
0.624997
 20
3.010937
 40
0.229687
 50
260.115926
 51
270.00064
  0
LINE
  8
APS_GEOMETRY
 10
0.625
 11
0.625
 20
2.78125
 21
1.65625
  0
LINE
  8
CONSTRUCTION
 10
0.152615
 11
0.10065
 20
-1.038482
 21
-1.166909
  0
LINE
  8
CONSTRUCTION
 10
0.10065
 11
0.20458
 20
-1.166909
 21
-1.166909
  0
LINE
  8
CONSTRUCTION
 10
0.20458
 11
0.152615
 20
-1.166909
 21
-1.038482
  0
LINE
  8
CONSTRUCTION
 10
0.152615
 11
0.559547
 20
-1.038482
 21
-1.03848
  0
LINE
  8
CONSTRUCTION
 10
0.559547
 11
0.507582
 20
-1.03848
 21
-1.166908
  0
LINE
  8
CONSTRUCTION
 10
0.507582
 11
0.611512
 20
-1.166908
 21
-1.166908
  0
LINE
  8
CONSTRUCTION
 10
0.611512
 11
0.559547
 20
-1.166908
 21
-1.03848
  0
LINE
  8
CONSTRUCTION
 10
0.559547
 11
0.966478
 20
-1.03848
 21
-1.03848
  0
LINE
  8
CONSTRUCTION
 10
0.966478
 11
0.914513
 20
-1.03848
 21
-1.166908
  0
LINE
  8
CONSTRUCTION
 10
0.914513
 11
1.018442
 20
-1.166908
 21
-1.166908
  0
LINE
  8
CONSTRUCTION
 10
1.018442
 11
0.966478
 20
-1.166908
 21
-1.03848
  0
LINE
  8
CONSTRUCTION
 10
0.966478
 11
1.373408
 20
-1.03848
 21
-1.03848
  0
LINE
  8
CONSTRUCTION
 10
1.373408
 11
1.321443
 20
-1.03848
 21
-1.166908
  0
LINE
  8
CONSTRUCTION
 10
1.321443
 11
1.425373
 20
-1.166908
 21
-1.166908
  0
LINE
  8
CONSTRUCTION
 10
1.425373
 11
1.373408
 20
-1.166908
 21
-1.03848
  0
LINE
  8
CONSTRUCTION
 10
1.373408
 11
1.780281
 20
-1.03848
 21
-1.038482
  0
LINE
  8
CONSTRUCTION
 10
1.780281
 11
1.728316
 20
-1.038482
 21
-1.166909
  0
LINE
  8
CONSTRUCTION
 10
1.728316
 11
1.832246
 20
-1.166909
 21
-1.166909
  0
LINE
  8
CONSTRUCTION
 10
1.832246
 11
1.780281
 20
-1.166909
 21
-1.038482
  0
LINE
  8
CONSTRUCTION
 10
0.0
 11
4.0
 20
-1.561751
 21
-1.561751
  0
TEXT
  8
TEXT
 10
0.10065
 20
-1.405784
 30
0.0
 40
0.224
 50
0.0
  1
DOVETAIL DESIGNS
  0
TEXT
  8
TEXT
 10
2.276036
 20
-1.551751
 30
0.0
 40
0.099
 50
0.0
  1
& MILLWORK INC.
  0
TEXT
  8
TEXT
 10
1.092458
 20
-1.640461
 30
0.0
 40
0.07
 50
0.0
  1
Established 1979
  0
TEXT
  8
TEXT
 10
0.1
 20
-1.8
 30
0.0
 40
0.1
 50
0.0
  1
Phone: (406) 248-5010    Website: www.dovetailmt.com
  0
TEXT
  8
TEXT
 10
0.0
 20
-0.5
 30
0.0
 40
0.1
 50
0.0
  1
3/4"x3-1/2"
  0
TEXT
  8
TEXT
 10
0.0
 20
-0.25
 30
0.0
 40
0.15625
 50
0.0
  1
B136
  0
ENDSEC
  0
EOF
