  0
SECTION
  2
ENTITIES
  0
ARC
  8
APS_GEOMETRY
 10
-0.03125
 20
0.588388
 40
0.09375
 50
289.471221
 51
0.0
  0
LINE
  8
APS_GEOMETRY
 10
0.0625
 11
0.0625
 20
0.588388
 21
1.161612
  0
ARC
  8
APS_GEOMETRY
 10
-0.03125
 20
1.161612
 40
0.09375
 50
0.0
 51
70.528779
  0
LINE
  8
APS_GEOMETRY
 10
0.0
 11
0.0
 20
1.25
 21
1.75
  0
ARC
  8
APS_GEOMETRY
 10
-0.03125
 20
1.838388
 40
0.09375
 50
289.471221
 51
359.999788
  0
LINE
  8
APS_GEOMETRY
 10
0.0625
 11
0.0625
 20
1.838388
 21
2.411612
  0
ARC
  8
APS_GEOMETRY
 10
-0.03125
 20
2.411612
 40
0.09375
 50
0.0
 51
70.528779
  0
LINE
  8
APS_GEOMETRY
 10
0.0
 11
0.0
 20
2.5
 21
3.0
  0
ARC
  8
APS_GEOMETRY
 10
-0.03125
 20
3.088388
 40
0.09375
 50
289.471221
 51
359.999788
  0
LINE
  8
APS_GEOMETRY
 10
0.0625
 11
0.0625
 20
3.088388
 21
3.661612
  0
ARC
  8
APS_GEOMETRY
 10
-0.03125
 20
3.661612
 40
0.09375
 50
0.0
 51
70.528779
  0
LINE
  8
APS_GEOMETRY
 10
0.0
 11
0.0
 20
3.75
 21
4.25
  0
LINE
  8
APS_GEOMETRY
 10
0.0
 11
0.3125
 20
4.25
 21
4.25
  0
LINE
  8
APS_GEOMETRY
 10
0.3125
 11
0.334087
 20
4.25
 21
4.248459
  0
LINE
  8
APS_GEOMETRY
 10
0.334087
 11
0.354681
 20
4.248459
 21
4.243987
  0
LINE
  8
APS_GEOMETRY
 10
0.354681
 11
0.374326
 20
4.243987
 21
4.236809
  0
LINE
  8
APS_GEOMETRY
 10
0.374326
 11
0.393063
 20
4.236809
 21
4.22715
  0
LINE
  8
APS_GEOMETRY
 10
0.393063
 11
0.427982
 20
4.22715
 21
4.201298
  0
LINE
  8
APS_GEOMETRY
 10
0.427982
 11
0.459779
 20
4.201298
 21
4.168235
  0
LINE
  8
APS_GEOMETRY
 10
0.459779
 11
0.515355
 20
4.168235
 21
4.087701
  0
LINE
  8
APS_GEOMETRY
 10
0.515355
 11
0.5625
 20
4.087701
 21
4.0
  0
LINE
  8
APS_GEOMETRY
 10
0.5625
 11
0.623506
 20
4.0
 21
3.872979
  0
LINE
  8
APS_GEOMETRY
 10
0.623506
 11
0.671875
 20
3.872979
 21
3.75
  0
LINE
  8
APS_GEOMETRY
 10
0.671875
 11
0.706189
 20
3.75
 21
3.630192
  0
LINE
  8
APS_GEOMETRY
 10
0.706189
 11
0.730588
 20
3.630192
 21
3.505121
  0
LINE
  8
APS_GEOMETRY
 10
0.730588
 11
0.75
 20
3.505121
 21
3.25
  0
LINE
  8
APS_GEOMETRY
 10
0.75
 11
0.75
 20
3.25
 21
0.0
  0
LINE
  8
APS_GEOMETRY
 10
0.75
 11
0.0
 20
0.0
 21
0.0
  0
LINE
  8
APS_GEOMETRY
 10
0.0
 11
0.0
 20
0.0
 21
0.5
  0
LINE
  8
CONSTRUCTION
 10
0.152615
 11
0.10065
 20
-1.038482
 21
-1.166909
  0
LINE
  8
CONSTRUCTION
 10
0.10065
 11
0.20458
 20
-1.166909
 21
-1.166909
  0
LINE
  8
CONSTRUCTION
 10
0.20458
 11
0.152615
 20
-1.166909
 21
-1.038482
  0
LINE
  8
CONSTRUCTION
 10
0.152615
 11
0.559547
 20
-1.038482
 21
-1.03848
  0
LINE
  8
CONSTRUCTION
 10
0.559547
 11
0.507582
 20
-1.03848
 21
-1.166908
  0
LINE
  8
CONSTRUCTION
 10
0.507582
 11
0.611512
 20
-1.166908
 21
-1.166908
  0
LINE
  8
CONSTRUCTION
 10
0.611512
 11
0.559547
 20
-1.166908
 21
-1.03848
  0
LINE
  8
CONSTRUCTION
 10
0.559547
 11
0.966478
 20
-1.03848
 21
-1.03848
  0
LINE
  8
CONSTRUCTION
 10
0.966478
 11
0.914513
 20
-1.03848
 21
-1.166908
  0
LINE
  8
CONSTRUCTION
 10
0.914513
 11
1.018442
 20
-1.166908
 21
-1.166908
  0
LINE
  8
CONSTRUCTION
 10
1.018442
 11
0.966478
 20
-1.166908
 21
-1.03848
  0
LINE
  8
CONSTRUCTION
 10
0.966478
 11
1.373408
 20
-1.03848
 21
-1.03848
  0
LINE
  8
CONSTRUCTION
 10
1.373408
 11
1.321443
 20
-1.03848
 21
-1.166908
  0
LINE
  8
CONSTRUCTION
 10
1.321443
 11
1.425373
 20
-1.166908
 21
-1.166908
  0
LINE
  8
CONSTRUCTION
 10
1.425373
 11
1.373408
 20
-1.166908
 21
-1.03848
  0
LINE
  8
CONSTRUCTION
 10
1.373408
 11
1.780281
 20
-1.03848
 21
-1.038482
  0
LINE
  8
CONSTRUCTION
 10
1.780281
 11
1.728316
 20
-1.038482
 21
-1.166909
  0
LINE
  8
CONSTRUCTION
 10
1.728316
 11
1.832246
 20
-1.166909
 21
-1.166909
  0
LINE
  8
CONSTRUCTION
 10
1.832246
 11
1.780281
 20
-1.166909
 21
-1.038482
  0
LINE
  8
CONSTRUCTION
 10
0.0
 11
4.0
 20
-1.561751
 21
-1.561751
  0
TEXT
  8
TEXT
 10
0.10065
 20
-1.405784
 30
0.0
 40
0.224
 50
0.0
  1
DOVETAIL DESIGNS
  0
TEXT
  8
TEXT
 10
2.276036
 20
-1.551751
 30
0.0
 40
0.099
 50
0.0
  1
& MILLWORK INC.
  0
TEXT
  8
TEXT
 10
1.092458
 20
-1.640461
 30
0.0
 40
0.07
 50
0.0
  1
Established 1979
  0
TEXT
  8
TEXT
 10
0.1
 20
-1.8
 30
0.0
 40
0.1
 50
0.0
  1
Phone: (406) 248-5010    Website: www.dovetailmt.com
  0
TEXT
  8
TEXT
 10
0.0
 20
-0.25
 30
0.0
 40
0.15625
 50
0.0
  1
B131
  0
TEXT
  8
TEXT
 10
0.0
 20
-0.5
 30
0.0
 40
0.1
 50
0.0
  1
3/4"x4-1/4"
  0
ENDSEC
  0
EOF
