  0
SECTION
  2
ENTITIES
  0
ARC
  8
MOULD-NEW
 10
0.46875
 20
3.457441
 40
0.21875
 50
0.0
 51
49.994799
  0
LINE
  8
MOULD-NEW
 10
0.609375
 11
0.662266
 20
3.625
 21
3.690563
  0
LINE
  8
MOULD-NEW
 10
0.662266
 11
0.673472
 20
3.690563
 21
3.714191
  0
LINE
  8
MOULD-NEW
 10
0.673472
 11
0.681368
 20
3.714191
 21
3.7394
  0
LINE
  8
MOULD-NEW
 10
0.681368
 11
0.686022
 20
3.7394
 21
3.76569
  0
LINE
  8
MOULD-NEW
 10
0.686022
 11
0.6875
 20
3.76569
 21
3.792559
  0
LINE
  8
MOULD-NEW
 10
0.6875
 11
0.68503
 20
3.792559
 21
3.825731
  0
LINE
  8
MOULD-NEW
 10
0.68503
 11
0.677824
 20
3.825731
 21
3.858053
  0
LINE
  8
MOULD-NEW
 10
0.677824
 11
0.665871
 20
3.858053
 21
3.888557
  0
LINE
  8
MOULD-NEW
 10
0.665871
 11
0.649157
 20
3.888557
 21
3.916272
  0
LINE
  8
MOULD-NEW
 10
0.649157
 11
0.609375
 20
3.916272
 21
3.960119
  0
LINE
  8
MOULD-NEW
 10
0.609375
 11
0.531765
 20
3.960119
 21
4.051554
  0
LINE
  8
MOULD-NEW
 10
0.531765
 11
0.466475
 20
4.051554
 21
4.152742
  0
LINE
  8
MOULD-NEW
 10
0.466475
 11
0.414774
 20
4.152742
 21
4.261407
  0
LINE
  8
MOULD-NEW
 10
0.414774
 11
0.377931
 20
4.261407
 21
4.37527
  0
LINE
  8
MOULD-NEW
 10
0.377931
 11
0.354428
 20
4.37527
 21
4.508363
  0
LINE
  8
MOULD-NEW
 10
0.354428
 11
0.34375
 20
4.508363
 21
4.75
  0
LINE
  8
MOULD-NEW
 10
0.34375
 11
0.34375
 20
4.75
 21
5.078125
  0
ARC
  8
MOULD-NEW
 10
0.171875
 20
5.078125
 40
0.171875
 50
0.0
 51
90.0
  0
LINE
  8
MOULD-NEW
 10
0.171875
 11
0.0
 20
5.25
 21
5.25
  0
LINE
  8
MOULD-NEW
 10
0.0
 11
0.0
 20
5.25
 21
3.75
  0
ARC
  8
MOULD-NEW
 10
-0.03125
 20
3.661612
 40
0.09375
 50
0.000212
 51
70.528779
  0
LINE
  8
MOULD-NEW
 10
0.0625
 11
0.0625
 20
3.661612
 21
0.838388
  0
ARC
  8
MOULD-NEW
 10
-0.03125
 20
0.838388
 40
0.09375
 50
289.471221
 51
0.0
  0
LINE
  8
MOULD-NEW
 10
0.0
 11
0.0
 20
0.75
 21
0.0
  0
LINE
  8
MOULD-NEW
 10
0.0
 11
0.6875
 20
0.0
 21
0.0
  0
LINE
  8
MOULD-NEW
 10
0.6875
 11
0.6875
 20
0.0
 21
3.457441
  0
LINE
  8
CONSTRUCTION
 10
0.152615
 11
0.10065
 20
-1.038482
 21
-1.166909
  0
LINE
  8
CONSTRUCTION
 10
0.10065
 11
0.20458
 20
-1.166909
 21
-1.166909
  0
LINE
  8
CONSTRUCTION
 10
0.20458
 11
0.152615
 20
-1.166909
 21
-1.038482
  0
LINE
  8
CONSTRUCTION
 10
0.152615
 11
0.559547
 20
-1.038482
 21
-1.03848
  0
LINE
  8
CONSTRUCTION
 10
0.559547
 11
0.507582
 20
-1.03848
 21
-1.166908
  0
LINE
  8
CONSTRUCTION
 10
0.507582
 11
0.611512
 20
-1.166908
 21
-1.166908
  0
LINE
  8
CONSTRUCTION
 10
0.611512
 11
0.559547
 20
-1.166908
 21
-1.03848
  0
LINE
  8
CONSTRUCTION
 10
0.559547
 11
0.966478
 20
-1.03848
 21
-1.03848
  0
LINE
  8
CONSTRUCTION
 10
0.966478
 11
0.914513
 20
-1.03848
 21
-1.166908
  0
LINE
  8
CONSTRUCTION
 10
0.914513
 11
1.018442
 20
-1.166908
 21
-1.166908
  0
LINE
  8
CONSTRUCTION
 10
1.018442
 11
0.966478
 20
-1.166908
 21
-1.03848
  0
LINE
  8
CONSTRUCTION
 10
0.966478
 11
1.373408
 20
-1.03848
 21
-1.03848
  0
LINE
  8
CONSTRUCTION
 10
1.373408
 11
1.321443
 20
-1.03848
 21
-1.166908
  0
LINE
  8
CONSTRUCTION
 10
1.321443
 11
1.425373
 20
-1.166908
 21
-1.166908
  0
LINE
  8
CONSTRUCTION
 10
1.425373
 11
1.373408
 20
-1.166908
 21
-1.03848
  0
LINE
  8
CONSTRUCTION
 10
1.373408
 11
1.780281
 20
-1.03848
 21
-1.038482
  0
LINE
  8
CONSTRUCTION
 10
1.780281
 11
1.728316
 20
-1.038482
 21
-1.166909
  0
LINE
  8
CONSTRUCTION
 10
1.728316
 11
1.832246
 20
-1.166909
 21
-1.166909
  0
LINE
  8
CONSTRUCTION
 10
1.832246
 11
1.780281
 20
-1.166909
 21
-1.038482
  0
LINE
  8
CONSTRUCTION
 10
0.0
 11
4.0
 20
-1.561751
 21
-1.561751
  0
TEXT
  8
TEXT
 10
0.10065
 20
-1.405784
 30
0.0
 40
0.224
 50
0.0
  1
DOVETAIL DESIGNS
  0
TEXT
  8
TEXT
 10
2.276036
 20
-1.551751
 30
0.0
 40
0.099
 50
0.0
  1
& MILLWORK INC.
  0
TEXT
  8
TEXT
 10
1.092458
 20
-1.640461
 30
0.0
 40
0.07
 50
0.0
  1
Established 1979
  0
TEXT
  8
TEXT
 10
0.1
 20
-1.8
 30
0.0
 40
0.1
 50
0.0
  1
Phone: (406) 248-5010    Website: www.dovetailmt.com
  0
TEXT
  8
TEXT
 10
0.0
 20
-0.5
 30
0.0
 40
0.1
 50
0.0
  1
11/16"x5-1/4"
  0
TEXT
  8
TEXT
 10
0.0
 20
-0.25
 30
0.0
 40
0.15625
 50
0.0
  1
B127
  0
ENDSEC
  0
EOF
