  0
SECTION
  2
ENTITIES
  0
ARC
  8
APS_GEOMETRY
 10
-0.03125
 20
0.838388
 40
0.09375
 50
289.471221
 51
0.0
  0
LINE
  8
APS_GEOMETRY
 10
0.0625
 11
0.0625
 20
0.838388
 21
2.161612
  0
ARC
  8
APS_GEOMETRY
 10
-0.03125
 20
2.161612
 40
0.09375
 50
0.0
 51
70.528779
  0
LINE
  8
APS_GEOMETRY
 10
0.0
 11
0.0
 20
2.25
 21
3.0
  0
ARC
  8
APS_GEOMETRY
 10
-0.03125
 20
3.088388
 40
0.09375
 50
289.471221
 51
359.999788
  0
LINE
  8
APS_GEOMETRY
 10
0.0625
 11
0.0625
 20
3.088388
 21
4.411612
  0
ARC
  8
APS_GEOMETRY
 10
-0.03125
 20
4.411612
 40
0.09375
 50
0.0
 51
70.528779
  0
LINE
  8
APS_GEOMETRY
 10
0.0
 11
0.0
 20
4.5
 21
5.25
  0
LINE
  8
APS_GEOMETRY
 10
0.0
 11
0.109375
 20
5.25
 21
5.25
  0
ARC
  8
APS_GEOMETRY
 10
0.109375
 20
5.0625
 40
0.1875
 50
12.5
 51
90.0
  0
ARC
  8
APS_GEOMETRY
 10
1.123485
 20
5.093588
 40
0.831109
 50
179.345437
 51
235.793088
  0
LINE
  8
APS_GEOMETRY
 10
0.65625
 11
0.65625
 20
4.40625
 21
4.1875
  0
LINE
  8
APS_GEOMETRY
 10
0.65625
 11
0.75
 20
4.1875
 21
4.1875
  0
LINE
  8
APS_GEOMETRY
 10
0.75
 11
0.75
 20
4.1875
 21
0.0
  0
LINE
  8
APS_GEOMETRY
 10
0.75
 11
0.0
 20
0.0
 21
0.0
  0
LINE
  8
APS_GEOMETRY
 10
0.0
 11
0.0
 20
0.0
 21
0.75
  0
LINE
  8
CONSTRUCTION
 10
0.152615
 11
0.10065
 20
-1.038482
 21
-1.166909
  0
LINE
  8
CONSTRUCTION
 10
0.10065
 11
0.20458
 20
-1.166909
 21
-1.166909
  0
LINE
  8
CONSTRUCTION
 10
0.20458
 11
0.152615
 20
-1.166909
 21
-1.038482
  0
LINE
  8
CONSTRUCTION
 10
0.152615
 11
0.559547
 20
-1.038482
 21
-1.03848
  0
LINE
  8
CONSTRUCTION
 10
0.559547
 11
0.507582
 20
-1.03848
 21
-1.166908
  0
LINE
  8
CONSTRUCTION
 10
0.507582
 11
0.611512
 20
-1.166908
 21
-1.166908
  0
LINE
  8
CONSTRUCTION
 10
0.611512
 11
0.559547
 20
-1.166908
 21
-1.03848
  0
LINE
  8
CONSTRUCTION
 10
0.559547
 11
0.966478
 20
-1.03848
 21
-1.03848
  0
LINE
  8
CONSTRUCTION
 10
0.966478
 11
0.914513
 20
-1.03848
 21
-1.166908
  0
LINE
  8
CONSTRUCTION
 10
0.914513
 11
1.018442
 20
-1.166908
 21
-1.166908
  0
LINE
  8
CONSTRUCTION
 10
1.018442
 11
0.966478
 20
-1.166908
 21
-1.03848
  0
LINE
  8
CONSTRUCTION
 10
0.966478
 11
1.373408
 20
-1.03848
 21
-1.03848
  0
LINE
  8
CONSTRUCTION
 10
1.373408
 11
1.321443
 20
-1.03848
 21
-1.166908
  0
LINE
  8
CONSTRUCTION
 10
1.321443
 11
1.425373
 20
-1.166908
 21
-1.166908
  0
LINE
  8
CONSTRUCTION
 10
1.425373
 11
1.373408
 20
-1.166908
 21
-1.03848
  0
LINE
  8
CONSTRUCTION
 10
1.373408
 11
1.780281
 20
-1.03848
 21
-1.038482
  0
LINE
  8
CONSTRUCTION
 10
1.780281
 11
1.728316
 20
-1.038482
 21
-1.166909
  0
LINE
  8
CONSTRUCTION
 10
1.728316
 11
1.832246
 20
-1.166909
 21
-1.166909
  0
LINE
  8
CONSTRUCTION
 10
1.832246
 11
1.780281
 20
-1.166909
 21
-1.038482
  0
LINE
  8
CONSTRUCTION
 10
0.0
 11
4.0
 20
-1.561751
 21
-1.561751
  0
TEXT
  8
TEXT
 10
0.10065
 20
-1.405784
 30
0.0
 40
0.224
 50
0.0
  1
DOVETAIL DESIGNS
  0
TEXT
  8
TEXT
 10
2.276036
 20
-1.551751
 30
0.0
 40
0.099
 50
0.0
  1
& MILLWORK INC.
  0
TEXT
  8
TEXT
 10
1.092458
 20
-1.640461
 30
0.0
 40
0.07
 50
0.0
  1
Established 1979
  0
TEXT
  8
TEXT
 10
0.1
 20
-1.8
 30
0.0
 40
0.1
 50
0.0
  1
Phone: (406) 248-5010    Website: www.dovetailmt.com
  0
TEXT
  8
TEXT
 10
0.0
 20
-0.5
 30
0.0
 40
0.1
 50
0.0
  1
3/4"x5-1/4"
  0
TEXT
  8
TEXT
 10
0.0
 20
-0.25
 30
0.0
 40
0.15625
 50
0.0
  1
B117
  0
ENDSEC
  0
EOF
