  0
SECTION
  2
ENTITIES
  0
ARC
  8
MOULD-NEW
 10
0.514062
 20
5.5625
 40
0.264062
 50
180.0
 51
225.23973
  0
ARC
  8
MOULD-NEW
 10
-0.34125
 20
4.7
 40
0.950625
 50
359.999974
 51
45.239742
  0
LINE
  8
MOULD-NEW
 10
0.609375
 11
0.609375
 20
4.7
 21
4.40625
  0
ARC
  8
MOULD-NEW
 10
0.640625
 20
4.40625
 40
0.03125
 50
180.0
 51
270.0
  0
LINE
  8
MOULD-NEW
 10
0.640625
 11
0.703125
 20
4.375
 21
4.375
  0
ARC
  8
MOULD-NEW
 10
0.703125
 20
4.34375
 40
0.03125
 50
0.0
 51
90.0
  0
LINE
  8
MOULD-NEW
 10
0.734375
 11
0.734375
 20
4.34375
 21
0.0
  0
LINE
  8
MOULD-NEW
 10
0.734375
 11
0.0
 20
0.0
 21
0.0
  0
LINE
  8
MOULD-NEW
 10
0.0
 11
0.0
 20
0.0
 21
0.5
  0
ARC
  8
MOULD-NEW
 10
-0.03125
 20
0.588388
 40
0.09375
 50
289.471221
 51
0.000187
  0
LINE
  8
MOULD-NEW
 10
0.0625
 11
0.0625
 20
0.588389
 21
1.161612
  0
ARC
  8
MOULD-NEW
 10
-0.03125
 20
1.161612
 40
0.09375
 50
0.0
 51
70.528779
  0
LINE
  8
MOULD-NEW
 10
0.0
 11
0.0
 20
1.25
 21
1.75
  0
ARC
  8
MOULD-NEW
 10
-0.03125
 20
1.838388
 40
0.09375
 50
289.471221
 51
0.000187
  0
LINE
  8
MOULD-NEW
 10
0.0625
 11
0.0625
 20
1.838389
 21
2.411612
  0
ARC
  8
MOULD-NEW
 10
-0.03125
 20
2.411612
 40
0.09375
 50
0.0
 51
70.528779
  0
LINE
  8
MOULD-NEW
 10
0.0
 11
0.0
 20
2.5
 21
3.0
  0
ARC
  8
MOULD-NEW
 10
-0.03125
 20
3.088388
 40
0.09375
 50
289.471221
 51
0.000187
  0
LINE
  8
MOULD-NEW
 10
0.0625
 11
0.0625
 20
3.088389
 21
3.661612
  0
ARC
  8
MOULD-NEW
 10
-0.03125
 20
3.661612
 40
0.09375
 50
0.0
 51
70.528779
  0
LINE
  8
MOULD-NEW
 10
0.0
 11
0.0
 20
3.75
 21
4.25
  0
ARC
  8
MOULD-NEW
 10
-0.03125
 20
4.338388
 40
0.09375
 50
289.471221
 51
0.000187
  0
LINE
  8
MOULD-NEW
 10
0.0625
 11
0.0625
 20
4.338389
 21
4.911612
  0
ARC
  8
MOULD-NEW
 10
-0.03125
 20
4.911612
 40
0.09375
 50
0.0
 51
70.528779
  0
LINE
  8
MOULD-NEW
 10
0.0
 11
0.0
 20
5.0
 21
5.75
  0
LINE
  8
MOULD-NEW
 10
0.0
 11
0.25
 20
5.75
 21
5.75
  0
LINE
  8
MOULD-NEW
 10
0.25
 11
0.25
 20
5.75
 21
5.5625
  0
LINE
  8
CONSTRUCTION
 10
0.152615
 11
0.10065
 20
-1.038482
 21
-1.166909
  0
LINE
  8
CONSTRUCTION
 10
0.10065
 11
0.20458
 20
-1.166909
 21
-1.166909
  0
LINE
  8
CONSTRUCTION
 10
0.20458
 11
0.152615
 20
-1.166909
 21
-1.038482
  0
LINE
  8
CONSTRUCTION
 10
0.152615
 11
0.559547
 20
-1.038482
 21
-1.03848
  0
LINE
  8
CONSTRUCTION
 10
0.559547
 11
0.507582
 20
-1.03848
 21
-1.166908
  0
LINE
  8
CONSTRUCTION
 10
0.507582
 11
0.611512
 20
-1.166908
 21
-1.166908
  0
LINE
  8
CONSTRUCTION
 10
0.611512
 11
0.559547
 20
-1.166908
 21
-1.03848
  0
LINE
  8
CONSTRUCTION
 10
0.559547
 11
0.966478
 20
-1.03848
 21
-1.03848
  0
LINE
  8
CONSTRUCTION
 10
0.966478
 11
0.914513
 20
-1.03848
 21
-1.166908
  0
LINE
  8
CONSTRUCTION
 10
0.914513
 11
1.018442
 20
-1.166908
 21
-1.166908
  0
LINE
  8
CONSTRUCTION
 10
1.018442
 11
0.966478
 20
-1.166908
 21
-1.03848
  0
LINE
  8
CONSTRUCTION
 10
0.966478
 11
1.373408
 20
-1.03848
 21
-1.03848
  0
LINE
  8
CONSTRUCTION
 10
1.373408
 11
1.321443
 20
-1.03848
 21
-1.166908
  0
LINE
  8
CONSTRUCTION
 10
1.321443
 11
1.425373
 20
-1.166908
 21
-1.166908
  0
LINE
  8
CONSTRUCTION
 10
1.425373
 11
1.373408
 20
-1.166908
 21
-1.03848
  0
LINE
  8
CONSTRUCTION
 10
1.373408
 11
1.780281
 20
-1.03848
 21
-1.038482
  0
LINE
  8
CONSTRUCTION
 10
1.780281
 11
1.728316
 20
-1.038482
 21
-1.166909
  0
LINE
  8
CONSTRUCTION
 10
1.728316
 11
1.832246
 20
-1.166909
 21
-1.166909
  0
LINE
  8
CONSTRUCTION
 10
1.832246
 11
1.780281
 20
-1.166909
 21
-1.038482
  0
LINE
  8
CONSTRUCTION
 10
0.0
 11
4.0
 20
-1.561751
 21
-1.561751
  0
TEXT
  8
TEXT
 10
0.10065
 20
-1.405784
 30
0.0
 40
0.224
 50
0.0
  1
DOVETAIL DESIGNS
  0
TEXT
  8
TEXT
 10
2.276036
 20
-1.551751
 30
0.0
 40
0.099
 50
0.0
  1
& MILLWORK INC.
  0
TEXT
  8
TEXT
 10
1.092458
 20
-1.640461
 30
0.0
 40
0.07
 50
0.0
  1
Established 1979
  0
TEXT
  8
TEXT
 10
0.1
 20
-1.8
 30
0.0
 40
0.1
 50
0.0
  1
Phone: (406) 248-5010    Website: www.dovetailmt.com
  0
TEXT
  8
TEXT
 10
0.0
 20
-0.5
 30
0.0
 40
0.1
 50
0.0
  1
3/4"x5-3/4"
  0
TEXT
  8
TEXT
 10
0.0
 20
-0.25
 30
0.0
 40
0.15625
 50
0.0
  1
B110
  0
ENDSEC
  0
EOF
