  0
SECTION
  2
ENTITIES
  0
ARC
  8
APS_GEOMETRY
 10
0.828125
 20
3.703125
 40
0.375
 50
155.921825
 51
234.136137
  0
LINE
  8
APS_GEOMETRY
 10
0.608427
 11
0.75
 20
3.399221
 21
3.296875
  0
LINE
  8
APS_GEOMETRY
 10
0.75
 11
0.75
 20
3.296875
 21
0.0
  0
LINE
  8
APS_GEOMETRY
 10
0.75
 11
0.0
 20
0.0
 21
0.0
  0
LINE
  8
APS_GEOMETRY
 10
0.0
 11
0.0
 20
0.0
 21
0.5
  0
ARC
  8
APS_GEOMETRY
 10
-0.03125
 20
0.588388
 40
0.09375
 50
289.471221
 51
359.999788
  0
LINE
  8
APS_GEOMETRY
 10
0.0625
 11
0.0625
 20
0.588388
 21
1.161611
  0
ARC
  8
APS_GEOMETRY
 10
-0.03125
 20
1.161611
 40
0.09375
 50
0.0
 51
70.528779
  0
LINE
  8
APS_GEOMETRY
 10
0.0
 11
0.0
 20
1.249999
 21
1.75
  0
ARC
  8
APS_GEOMETRY
 10
-0.03125
 20
1.838388
 40
0.09375
 50
289.471221
 51
359.999576
  0
LINE
  8
APS_GEOMETRY
 10
0.0625
 11
0.0625
 20
1.838388
 21
2.411611
  0
ARC
  8
APS_GEOMETRY
 10
-0.03125
 20
2.411611
 40
0.09375
 50
0.0
 51
70.528779
  0
LINE
  8
APS_GEOMETRY
 10
0.0
 11
0.0
 20
2.499999
 21
3.0
  0
ARC
  8
APS_GEOMETRY
 10
-0.03125
 20
3.088388
 40
0.09375
 50
289.471221
 51
359.999576
  0
LINE
  8
APS_GEOMETRY
 10
0.0625
 11
0.0625
 20
3.088388
 21
3.661611
  0
ARC
  8
APS_GEOMETRY
 10
-0.03125
 20
3.661611
 40
0.09375
 50
0.0
 51
70.528779
  0
LINE
  8
APS_GEOMETRY
 10
0.0
 11
0.0
 20
3.749999
 21
4.25
  0
ARC
  8
APS_GEOMETRY
 10
-0.03125
 20
4.338388
 40
0.09375
 50
289.471221
 51
359.999576
  0
LINE
  8
APS_GEOMETRY
 10
0.0625
 11
0.0625
 20
4.338388
 21
4.911611
  0
ARC
  8
APS_GEOMETRY
 10
-0.03125
 20
4.911611
 40
0.09375
 50
0.0
 51
70.528779
  0
LINE
  8
APS_GEOMETRY
 10
0.0
 11
0.0
 20
4.999999
 21
5.75
  0
LINE
  8
APS_GEOMETRY
 10
0.0
 11
0.140625
 20
5.75
 21
5.75
  0
ARC
  8
APS_GEOMETRY
 10
0.140625
 20
5.484375
 40
0.265625
 50
308.880066
 51
90.0
  0
LINE
  8
APS_GEOMETRY
 10
0.307356
 11
0.234375
 20
5.277596
 21
5.21875
  0
LINE
  8
APS_GEOMETRY
 10
0.234375
 11
0.234375
 20
5.21875
 21
5.077445
  0
ARC
  8
APS_GEOMETRY
 10
0.609375
 20
5.077445
 40
0.375
 50
180.0
 51
253.042237
  0
LINE
  8
APS_GEOMETRY
 10
0.5
 11
0.5
 20
4.71875
 21
4.617188
  0
LINE
  8
APS_GEOMETRY
 10
0.5
 11
0.562866
 20
4.617188
 21
4.56581
  0
ARC
  8
APS_GEOMETRY
 10
0.375
 20
4.335938
 40
0.296875
 50
335.92182
 51
50.742124
  0
LINE
  8
APS_GEOMETRY
 10
0.646044
 11
0.485754
 20
4.214818
 21
3.856119
  0
LINE
  8
CONSTRUCTION
 10
0.152615
 11
0.10065
 20
-1.038482
 21
-1.166909
  0
LINE
  8
CONSTRUCTION
 10
0.10065
 11
0.20458
 20
-1.166909
 21
-1.166909
  0
LINE
  8
CONSTRUCTION
 10
0.20458
 11
0.152615
 20
-1.166909
 21
-1.038482
  0
LINE
  8
CONSTRUCTION
 10
0.152615
 11
0.559547
 20
-1.038482
 21
-1.03848
  0
LINE
  8
CONSTRUCTION
 10
0.559547
 11
0.507582
 20
-1.03848
 21
-1.166908
  0
LINE
  8
CONSTRUCTION
 10
0.507582
 11
0.611512
 20
-1.166908
 21
-1.166908
  0
LINE
  8
CONSTRUCTION
 10
0.611512
 11
0.559547
 20
-1.166908
 21
-1.03848
  0
LINE
  8
CONSTRUCTION
 10
0.559547
 11
0.966478
 20
-1.03848
 21
-1.03848
  0
LINE
  8
CONSTRUCTION
 10
0.966478
 11
0.914513
 20
-1.03848
 21
-1.166908
  0
LINE
  8
CONSTRUCTION
 10
0.914513
 11
1.018442
 20
-1.166908
 21
-1.166908
  0
LINE
  8
CONSTRUCTION
 10
1.018442
 11
0.966478
 20
-1.166908
 21
-1.03848
  0
LINE
  8
CONSTRUCTION
 10
0.966478
 11
1.373408
 20
-1.03848
 21
-1.03848
  0
LINE
  8
CONSTRUCTION
 10
1.373408
 11
1.321443
 20
-1.03848
 21
-1.166908
  0
LINE
  8
CONSTRUCTION
 10
1.321443
 11
1.425373
 20
-1.166908
 21
-1.166908
  0
LINE
  8
CONSTRUCTION
 10
1.425373
 11
1.373408
 20
-1.166908
 21
-1.03848
  0
LINE
  8
CONSTRUCTION
 10
1.373408
 11
1.780281
 20
-1.03848
 21
-1.038482
  0
LINE
  8
CONSTRUCTION
 10
1.780281
 11
1.728316
 20
-1.038482
 21
-1.166909
  0
LINE
  8
CONSTRUCTION
 10
1.728316
 11
1.832246
 20
-1.166909
 21
-1.166909
  0
LINE
  8
CONSTRUCTION
 10
1.832246
 11
1.780281
 20
-1.166909
 21
-1.038482
  0
LINE
  8
CONSTRUCTION
 10
0.0
 11
4.0
 20
-1.561751
 21
-1.561751
  0
TEXT
  8
TEXT
 10
0.10065
 20
-1.405784
 30
0.0
 40
0.224
 50
0.0
  1
DOVETAIL DESIGNS
  0
TEXT
  8
TEXT
 10
2.276036
 20
-1.551751
 30
0.0
 40
0.099
 50
0.0
  1
& MILLWORK INC.
  0
TEXT
  8
TEXT
 10
1.092458
 20
-1.640461
 30
0.0
 40
0.07
 50
0.0
  1
Established 1979
  0
TEXT
  8
TEXT
 10
0.1
 20
-1.8
 30
0.0
 40
0.1
 50
0.0
  1
Phone: (406) 248-5010    Website: www.dovetailmt.com
  0
TEXT
  8
TEXT
 10
0.0
 20
-0.5
 30
0.0
 40
0.1
 50
0.0
  1
3/4"x5-3/4"
  0
TEXT
  8
TEXT
 10
0.0
 20
-0.25
 30
0.0
 40
0.15625
 50
0.0
  1
B105
  0
ENDSEC
  0
EOF
