  0
SECTION
  2
ENTITIES
  0
ARC
  8
MOULD-NEW
 10
1.0625
 20
7.953125
 40
0.875
 50
180.0
 51
234.012525
  0
ARC
  8
MOULD-NEW
 10
0.52817
 20
7.217344
 40
0.03433
 50
315.000168
 51
54.013345
  0
LINE
  8
MOULD-NEW
 10
0.552446
 11
0.390625
 20
7.19307
 21
7.03125
  0
ARC
  8
MOULD-NEW
 10
0.357136
 20
6.828635
 40
0.205364
 50
302.922257
 51
80.614764
  0
ARC
  8
MOULD-NEW
 10
0.357138
 20
6.483865
 40
0.205364
 50
279.384864
 51
57.078331
  0
LINE
  8
MOULD-NEW
 10
0.390625
 11
0.65625
 20
6.28125
 21
5.453125
  0
LINE
  8
MOULD-NEW
 10
0.65625
 11
0.78125
 20
5.453125
 21
5.453125
  0
ARC
  8
MOULD-NEW
 10
0.78125
 20
5.421875
 40
0.03125
 50
0.0
 51
90.0
  0
LINE
  8
MOULD-NEW
 10
0.8125
 11
0.8125
 20
5.421875
 21
0.0
  0
LINE
  8
MOULD-NEW
 10
0.8125
 11
0.0
 20
0.0
 21
0.0
  0
LINE
  8
MOULD-NEW
 10
0.0
 11
0.0
 20
0.0
 21
0.75
  0
ARC
  8
MOULD-NEW
 10
-0.03125
 20
0.838388
 40
0.09375
 50
289.471221
 51
0.000187
  0
LINE
  8
MOULD-NEW
 10
0.0625
 11
0.0625
 20
0.838389
 21
2.661612
  0
ARC
  8
MOULD-NEW
 10
-0.03125
 20
2.661612
 40
0.09375
 50
0.0
 51
70.528779
  0
LINE
  8
MOULD-NEW
 10
0.0
 11
0.0
 20
2.75
 21
3.5
  0
ARC
  8
MOULD-NEW
 10
-0.03125
 20
3.588388
 40
0.09375
 50
289.471221
 51
0.000187
  0
LINE
  8
MOULD-NEW
 10
0.0625
 11
0.0625
 20
3.588389
 21
5.411612
  0
ARC
  8
MOULD-NEW
 10
-0.03125
 20
5.411612
 40
0.09375
 50
0.0
 51
70.528779
  0
LINE
  8
MOULD-NEW
 10
0.0
 11
0.0
 20
5.5
 21
8.0
  0
LINE
  8
MOULD-NEW
 10
0.0
 11
0.1875
 20
8.0
 21
8.0
  0
LINE
  8
MOULD-NEW
 10
0.1875
 11
0.1875
 20
8.0
 21
7.953125
  0
LINE
  8
CONSTRUCTION
 10
0.152615
 11
0.10065
 20
-1.038482
 21
-1.166909
  0
LINE
  8
CONSTRUCTION
 10
0.10065
 11
0.20458
 20
-1.166909
 21
-1.166909
  0
LINE
  8
CONSTRUCTION
 10
0.20458
 11
0.152615
 20
-1.166909
 21
-1.038482
  0
LINE
  8
CONSTRUCTION
 10
0.152615
 11
0.559547
 20
-1.038482
 21
-1.03848
  0
LINE
  8
CONSTRUCTION
 10
0.559547
 11
0.507582
 20
-1.03848
 21
-1.166908
  0
LINE
  8
CONSTRUCTION
 10
0.507582
 11
0.611512
 20
-1.166908
 21
-1.166908
  0
LINE
  8
CONSTRUCTION
 10
0.611512
 11
0.559547
 20
-1.166908
 21
-1.03848
  0
LINE
  8
CONSTRUCTION
 10
0.559547
 11
0.966478
 20
-1.03848
 21
-1.03848
  0
LINE
  8
CONSTRUCTION
 10
0.966478
 11
0.914513
 20
-1.03848
 21
-1.166908
  0
LINE
  8
CONSTRUCTION
 10
0.914513
 11
1.018442
 20
-1.166908
 21
-1.166908
  0
LINE
  8
CONSTRUCTION
 10
1.018442
 11
0.966478
 20
-1.166908
 21
-1.03848
  0
LINE
  8
CONSTRUCTION
 10
0.966478
 11
1.373408
 20
-1.03848
 21
-1.03848
  0
LINE
  8
CONSTRUCTION
 10
1.373408
 11
1.321443
 20
-1.03848
 21
-1.166908
  0
LINE
  8
CONSTRUCTION
 10
1.321443
 11
1.425373
 20
-1.166908
 21
-1.166908
  0
LINE
  8
CONSTRUCTION
 10
1.425373
 11
1.373408
 20
-1.166908
 21
-1.03848
  0
LINE
  8
CONSTRUCTION
 10
1.373408
 11
1.780281
 20
-1.03848
 21
-1.038482
  0
LINE
  8
CONSTRUCTION
 10
1.780281
 11
1.728316
 20
-1.038482
 21
-1.166909
  0
LINE
  8
CONSTRUCTION
 10
1.728316
 11
1.832246
 20
-1.166909
 21
-1.166909
  0
LINE
  8
CONSTRUCTION
 10
1.832246
 11
1.780281
 20
-1.166909
 21
-1.038482
  0
LINE
  8
CONSTRUCTION
 10
0.0
 11
4.0
 20
-1.561751
 21
-1.561751
  0
TEXT
  8
TEXT
 10
0.10065
 20
-1.405784
 30
0.0
 40
0.224
 50
0.0
  1
DOVETAIL DESIGNS
  0
TEXT
  8
TEXT
 10
2.276036
 20
-1.551751
 30
0.0
 40
0.099
 50
0.0
  1
& MILLWORK INC.
  0
TEXT
  8
TEXT
 10
1.092458
 20
-1.640461
 30
0.0
 40
0.07
 50
0.0
  1
Established 1979
  0
TEXT
  8
TEXT
 10
0.1
 20
-1.8
 30
0.0
 40
0.1
 50
0.0
  1
Phone: (406) 248-5010    Website: www.dovetailmt.com
  0
TEXT
  8
TEXT
 10
0.0
 20
-0.25
 30
0.0
 40
0.15625
 50
0.0
  1
B101
  0
TEXT
  8
TEXT
 10
0.0
 20
-0.5
 30
0.0
 40
0.1
 50
0.0
  1
13/16"x8"
  0
ENDSEC
  0
EOF
