  0
SECTION
  2
ENTITIES
  0
ARC
  8
APS_GEOMETRY
 10
1.640661
 20
0.463561
 40
0.375
 50
279.588398
 51
0.80046
  0
LINE
  8
APS_GEOMETRY
 10
2.015624
 11
2.07815
 20
0.4688
 21
0.468833
  0
LINE
  8
APS_GEOMETRY
 10
2.07815
 11
2.092026
 20
0.468833
 21
0.468803
  0
ARC
  8
APS_GEOMETRY
 10
2.404387
 20
0.459473
 40
0.3125
 50
125.310786
 51
178.289082
  0
ARC
  8
APS_GEOMETRY
 10
2.111838
 20
0.834442
 40
0.164063
 50
313.014179
 51
132.912725
  0
ARC
  8
APS_GEOMETRY
 10
2.111944
 20
0.834541
 40
0.164063
 50
132.963395
 51
144.348349
  0
ARC
  8
APS_GEOMETRY
 10
1.75
 20
1.0313
 40
0.25
 50
270.000033
 51
336.137961
  0
LINE
  8
APS_GEOMETRY
 10
1.75
 11
0.9375
 20
0.7813
 21
0.828125
  0
ARC
  8
APS_GEOMETRY
 10
0.9375
 20
1.015625
 40
0.1875
 50
179.984721
 51
270.0
  0
LINE
  8
APS_GEOMETRY
 10
0.75
 11
0.75
 20
1.015675
 21
1.0313
  0
LINE
  8
APS_GEOMETRY
 10
0.75
 11
0.0
 20
1.0313
 21
1.03125
  0
LINE
  8
APS_GEOMETRY
 10
0.0
 11
0.0
 20
1.03125
 21
0.0
  0
LINE
  8
APS_GEOMETRY
 10
0.0
 11
1.671875
 20
0.0
 21
0.0
  0
LINE
  8
APS_GEOMETRY
 10
1.671875
 11
1.671875
 20
0.0
 21
0.09375
  0
LINE
  8
APS_GEOMETRY
 10
1.671875
 11
1.6875
 20
0.09375
 21
0.09375
  0
LINE
  8
APS_GEOMETRY
 10
1.6875
 11
1.703124
 20
0.09375
 21
0.0938
  0
LINE
  8
CONSTRUCTION
 10
0.152615
 11
0.10065
 20
-1.038482
 21
-1.166909
  0
LINE
  8
CONSTRUCTION
 10
0.10065
 11
0.20458
 20
-1.166909
 21
-1.166909
  0
LINE
  8
CONSTRUCTION
 10
0.20458
 11
0.152615
 20
-1.166909
 21
-1.038482
  0
LINE
  8
CONSTRUCTION
 10
0.152615
 11
0.559547
 20
-1.038482
 21
-1.03848
  0
LINE
  8
CONSTRUCTION
 10
0.559547
 11
0.507582
 20
-1.03848
 21
-1.166908
  0
LINE
  8
CONSTRUCTION
 10
0.507582
 11
0.611512
 20
-1.166908
 21
-1.166908
  0
LINE
  8
CONSTRUCTION
 10
0.611512
 11
0.559547
 20
-1.166908
 21
-1.03848
  0
LINE
  8
CONSTRUCTION
 10
0.559547
 11
0.966478
 20
-1.03848
 21
-1.03848
  0
LINE
  8
CONSTRUCTION
 10
0.966478
 11
0.914513
 20
-1.03848
 21
-1.166908
  0
LINE
  8
CONSTRUCTION
 10
0.914513
 11
1.018442
 20
-1.166908
 21
-1.166908
  0
LINE
  8
CONSTRUCTION
 10
1.018442
 11
0.966478
 20
-1.166908
 21
-1.03848
  0
LINE
  8
CONSTRUCTION
 10
0.966478
 11
1.373408
 20
-1.03848
 21
-1.03848
  0
LINE
  8
CONSTRUCTION
 10
1.373408
 11
1.321443
 20
-1.03848
 21
-1.166908
  0
LINE
  8
CONSTRUCTION
 10
1.321443
 11
1.425373
 20
-1.166908
 21
-1.166908
  0
LINE
  8
CONSTRUCTION
 10
1.425373
 11
1.373408
 20
-1.166908
 21
-1.03848
  0
LINE
  8
CONSTRUCTION
 10
1.373408
 11
1.780281
 20
-1.03848
 21
-1.038482
  0
LINE
  8
CONSTRUCTION
 10
1.780281
 11
1.728316
 20
-1.038482
 21
-1.166909
  0
LINE
  8
CONSTRUCTION
 10
1.728316
 11
1.832246
 20
-1.166909
 21
-1.166909
  0
LINE
  8
CONSTRUCTION
 10
1.832246
 11
1.780281
 20
-1.166909
 21
-1.038482
  0
LINE
  8
CONSTRUCTION
 10
0.0
 11
4.0
 20
-1.561751
 21
-1.561751
  0
TEXT
  8
TEXT
 10
0.10065
 20
-1.405784
 30
0.0
 40
0.224
 50
0.0
  1
DOVETAIL DESIGNS
  0
TEXT
  8
TEXT
 10
2.276036
 20
-1.551751
 30
0.0
 40
0.099
 50
0.0
  1
& MILLWORK INC.
  0
TEXT
  8
TEXT
 10
1.092458
 20
-1.640461
 30
0.0
 40
0.07
 50
0.0
  1
Established 1979
  0
TEXT
  8
TEXT
 10
0.1
 20
-1.8
 30
0.0
 40
0.1
 50
0.0
  1
Phone: (406) 248-5010    Website: www.dovetailmt.com
  0
TEXT
  8
TEXT
 10
0.0
 20
-0.25
 30
0.0
 40
0.15625
 50
0.0
  1
WC2
  0
TEXT
  8
TEXT
 10
0.0
 20
-0.5
 30
0.0
 40
0.1
 50
0.0
  1
2-9/32"x1-1/32"
  0
ENDSEC
  0
EOF
