  0
SECTION
  2
ENTITIES
  0
ARC
  8
0
 10
0.187396
 20
0.311448
 40
0.311567
 50
268.414066
 51
339.495685
  0
LINE
  8
0
 10
0.479224
 11
0.612518
 20
0.202313
 21
0.202313
  0
LINE
  8
0
 10
0.612518
 11
0.612519
 20
0.202313
 21
0.284794
  0
ARC
  8
0
 10
0.635007
 20
0.439977
 40
0.156804
 50
261.754549
 51
81.754549
  0
ARC
  8
0
 10
0.635007
 20
0.439977
 40
0.156804
 50
81.754549
 51
96.683931
  0
LINE
  8
0
 10
0.616756
 11
0.616756
 20
0.595715
 21
0.700503
  0
LINE
  8
0
 10
0.616756
 11
0.723019
 20
0.700503
 21
0.700503
  0
ARC
  8
0
 10
1.555382
 20
0.775395
 40
0.835726
 50
136.651256
 51
185.141361
  0
ARC
  8
0
 10
0.682362
 20
1.69561
 40
0.436428
 50
307.435286
 51
127.435286
  0
ARC
  8
0
 10
0.682362
 20
1.69561
 40
0.436428
 50
127.435286
 51
144.026872
  0
LINE
  8
0
 10
0.329164
 11
0.258772
 20
1.95197
 21
1.95197
  0
LINE
  8
0
 10
0.258772
 11
0.258772
 20
1.95197
 21
2.125
  0
LINE
  8
0
 10
0.258772
 11
0.007727
 20
2.125
 21
2.125
  0
LINE
  8
0
 10
0.007727
 11
0.007727
 20
2.125
 21
1.705488
  0
LINE
  8
0
 10
0.007727
 11
0.116563
 20
1.705488
 21
1.514157
  0
LINE
  8
0
 10
0.116563
 11
0.116563
 20
1.514157
 21
0.692562
  0
LINE
  8
0
 10
0.116563
 11
0.0
 20
0.692562
 21
0.471224
  0
LINE
  8
0
 10
0.0
 11
0.0
 20
0.471224
 21
0.0
  0
LINE
  8
0
 10
0.0
 11
0.196019
 20
0.0
 21
0.0
  0
LINE
  8
CONSTRUCTION
 10
0.152615
 11
0.10065
 20
-1.038482
 21
-1.166909
  0
LINE
  8
CONSTRUCTION
 10
0.10065
 11
0.20458
 20
-1.166909
 21
-1.166909
  0
LINE
  8
CONSTRUCTION
 10
0.20458
 11
0.152615
 20
-1.166909
 21
-1.038482
  0
LINE
  8
CONSTRUCTION
 10
0.152615
 11
0.559547
 20
-1.038482
 21
-1.03848
  0
LINE
  8
CONSTRUCTION
 10
0.559547
 11
0.507582
 20
-1.03848
 21
-1.166908
  0
LINE
  8
CONSTRUCTION
 10
0.507582
 11
0.611512
 20
-1.166908
 21
-1.166908
  0
LINE
  8
CONSTRUCTION
 10
0.611512
 11
0.559547
 20
-1.166908
 21
-1.03848
  0
LINE
  8
CONSTRUCTION
 10
0.559547
 11
0.966478
 20
-1.03848
 21
-1.03848
  0
LINE
  8
CONSTRUCTION
 10
0.966478
 11
0.914513
 20
-1.03848
 21
-1.166908
  0
LINE
  8
CONSTRUCTION
 10
0.914513
 11
1.018442
 20
-1.166908
 21
-1.166908
  0
LINE
  8
CONSTRUCTION
 10
1.018442
 11
0.966478
 20
-1.166908
 21
-1.03848
  0
LINE
  8
CONSTRUCTION
 10
0.966478
 11
1.373408
 20
-1.03848
 21
-1.03848
  0
LINE
  8
CONSTRUCTION
 10
1.373408
 11
1.321443
 20
-1.03848
 21
-1.166908
  0
LINE
  8
CONSTRUCTION
 10
1.321443
 11
1.425373
 20
-1.166908
 21
-1.166908
  0
LINE
  8
CONSTRUCTION
 10
1.425373
 11
1.373408
 20
-1.166908
 21
-1.03848
  0
LINE
  8
CONSTRUCTION
 10
1.373408
 11
1.780281
 20
-1.03848
 21
-1.038482
  0
LINE
  8
CONSTRUCTION
 10
1.780281
 11
1.728316
 20
-1.038482
 21
-1.166909
  0
LINE
  8
CONSTRUCTION
 10
1.728316
 11
1.832246
 20
-1.166909
 21
-1.166909
  0
LINE
  8
CONSTRUCTION
 10
1.832246
 11
1.780281
 20
-1.166909
 21
-1.038482
  0
LINE
  8
CONSTRUCTION
 10
0.0
 11
4.0
 20
-1.561751
 21
-1.561751
  0
TEXT
  8
TEXT
 10
0.10065
 20
-1.405784
 30
0.0
 40
0.224
 50
0.0
  1
DOVETAIL DESIGNS
  0
TEXT
  8
TEXT
 10
2.276036
 20
-1.551751
 30
0.0
 40
0.099
 50
0.0
  1
& MILLWORK INC.
  0
TEXT
  8
TEXT
 10
1.092458
 20
-1.640461
 30
0.0
 40
0.07
 50
0.0
  1
Established 1979
  0
TEXT
  8
TEXT
 10
0.1
 20
-1.8
 30
0.0
 40
0.1
 50
0.0
  1
Phone: (406) 248-5010    Website: www.dovetailmt.com
  0
TEXT
  8
TEXT
 10
0.0
 20
-0.25
 30
0.0
 40
0.15625
 50
0.0
  1
PR23
  0
TEXT
  8
TEXT
 10
0.0
 20
-0.5
 30
0.0
 40
0.1
 50
0.0
  1
1-3/32"x2-1/8"
  0
ENDSEC
  0
EOF
