  0
SECTION
  2
ENTITIES
  0
ARC
  8
APS_GEOMETRY
 10
3.310029
 20
0.645971
 40
0.689971
 50
290.572373
 51
15.562632
  0
ARC
  8
APS_GEOMETRY
 10
2.867473
 20
0.52272
 40
1.149369
 50
15.562553
 51
43.504638
  0
ARC
  8
APS_GEOMETRY
 10
11.106819
 20
8.342865
 40
10.210274
 50
221.385896
 51
223.504764
  0
ARC
  8
APS_GEOMETRY
 10
4.33387
 20
2.416289
 40
1.21089
 50
181.954067
 51
222.863563
  0
LINE
  8
APS_GEOMETRY
 10
3.123684
 11
2.998684
 20
2.375
 21
2.375
  0
LINE
  8
APS_GEOMETRY
 10
2.998684
 11
2.998684
 20
2.375
 21
3.25
  0
LINE
  8
APS_GEOMETRY
 10
2.998684
 11
0.998684
 20
3.25
 21
3.25
  0
LINE
  8
APS_GEOMETRY
 10
0.998684
 11
0.998684
 20
3.25
 21
2.375
  0
LINE
  8
APS_GEOMETRY
 10
0.998684
 11
0.873684
 20
2.375
 21
2.375
  0
ARC
  8
APS_GEOMETRY
 10
-0.309788
 20
2.375001
 40
1.183472
 50
318.614094
 51
359.999945
  0
ARC
  8
APS_GEOMETRY
 10
-7.432251
 20
9.342529
 40
11.145768
 50
313.918722
 51
315.946715
  0
ARC
  8
APS_GEOMETRY
 10
1.132525
 20
0.522716
 40
1.149369
 50
136.49516
 51
164.437211
  0
ARC
  8
APS_GEOMETRY
 10
0.68997
 20
0.645971
 40
0.689971
 50
164.437332
 51
249.427676
  0
LINE
  8
APS_GEOMETRY
 10
0.447522
 11
3.552478
 20
0.0
 21
0.0
  0
LINE
  8
CONSTRUCTION
 10
0.152615
 11
0.10065
 20
-1.038482
 21
-1.166909
  0
LINE
  8
CONSTRUCTION
 10
0.10065
 11
0.20458
 20
-1.166909
 21
-1.166909
  0
LINE
  8
CONSTRUCTION
 10
0.20458
 11
0.152615
 20
-1.166909
 21
-1.038482
  0
LINE
  8
CONSTRUCTION
 10
0.152615
 11
0.559547
 20
-1.038482
 21
-1.03848
  0
LINE
  8
CONSTRUCTION
 10
0.559547
 11
0.507582
 20
-1.03848
 21
-1.166908
  0
LINE
  8
CONSTRUCTION
 10
0.507582
 11
0.611512
 20
-1.166908
 21
-1.166908
  0
LINE
  8
CONSTRUCTION
 10
0.611512
 11
0.559547
 20
-1.166908
 21
-1.03848
  0
LINE
  8
CONSTRUCTION
 10
0.559547
 11
0.966478
 20
-1.03848
 21
-1.03848
  0
LINE
  8
CONSTRUCTION
 10
0.966478
 11
0.914513
 20
-1.03848
 21
-1.166908
  0
LINE
  8
CONSTRUCTION
 10
0.914513
 11
1.018442
 20
-1.166908
 21
-1.166908
  0
LINE
  8
CONSTRUCTION
 10
1.018442
 11
0.966478
 20
-1.166908
 21
-1.03848
  0
LINE
  8
CONSTRUCTION
 10
0.966478
 11
1.373408
 20
-1.03848
 21
-1.03848
  0
LINE
  8
CONSTRUCTION
 10
1.373408
 11
1.321443
 20
-1.03848
 21
-1.166908
  0
LINE
  8
CONSTRUCTION
 10
1.321443
 11
1.425373
 20
-1.166908
 21
-1.166908
  0
LINE
  8
CONSTRUCTION
 10
1.425373
 11
1.373408
 20
-1.166908
 21
-1.03848
  0
LINE
  8
CONSTRUCTION
 10
1.373408
 11
1.780281
 20
-1.03848
 21
-1.038482
  0
LINE
  8
CONSTRUCTION
 10
1.780281
 11
1.728316
 20
-1.038482
 21
-1.166909
  0
LINE
  8
CONSTRUCTION
 10
1.728316
 11
1.832246
 20
-1.166909
 21
-1.166909
  0
LINE
  8
CONSTRUCTION
 10
1.832246
 11
1.780281
 20
-1.166909
 21
-1.038482
  0
LINE
  8
CONSTRUCTION
 10
0.0
 11
4.0
 20
-1.561751
 21
-1.561751
  0
TEXT
  8
TEXT
 10
0.10065
 20
-1.405784
 30
0.0
 40
0.224
 50
0.0
  1
DOVETAIL DESIGNS
  0
TEXT
  8
TEXT
 10
2.276036
 20
-1.551751
 30
0.0
 40
0.099
 50
0.0
  1
& MILLWORK INC.
  0
TEXT
  8
TEXT
 10
1.092458
 20
-1.640461
 30
0.0
 40
0.07
 50
0.0
  1
Established 1979
  0
TEXT
  8
TEXT
 10
0.1
 20
-1.8
 30
0.0
 40
0.1
 50
0.0
  1
Phone: (406) 248-5010    Website: www.dovetailmt.com
  0
TEXT
  8
TEXT
 10
0.0
 20
-0.25
 30
0.0
 40
0.15625
 50
0.0
  1
HR48
  0
TEXT
  8
TEXT
 10
0.0
 20
-0.5
 30
0.0
 40
0.1
 50
0.0
  1
4"x3-1/4"
  0
ENDSEC
  0
EOF
