  0
SECTION
  2
ENTITIES
  0
ARC
  8
APS_GEOMETRY
 10
1.921875
 20
0.4375
 40
0.15625
 50
303.367013
 51
56.632987
  0
LINE
  8
APS_GEOMETRY
 10
2.007813
 11
2.007813
 20
0.567994
 21
0.75
  0
ARC
  8
APS_GEOMETRY
 10
3.507813
 20
0.75
 40
1.5
 50
153.473341
 51
180.0
  0
ARC
  8
APS_GEOMETRY
 10
1.316643
 20
1.843749
 40
0.948982
 50
333.473412
 51
0.000059
  0
ARC
  8
APS_GEOMETRY
 10
1.71875
 20
1.84375
 40
0.546875
 50
0.000002
 51
90.0
  0
LINE
  8
APS_GEOMETRY
 10
1.71875
 11
0.546875
 20
2.390625
 21
2.390625
  0
ARC
  8
APS_GEOMETRY
 10
0.546875
 20
1.84375
 40
0.546875
 50
90.0
 51
179.999998
  0
ARC
  8
APS_GEOMETRY
 10
0.948982
 20
1.84375
 40
0.948982
 50
180.000002
 51
206.526657
  0
ARC
  8
APS_GEOMETRY
 10
-1.242187
 20
0.749999
 40
1.5
 50
0.000038
 51
26.526701
  0
LINE
  8
APS_GEOMETRY
 10
0.257813
 11
0.257813
 20
0.75
 21
0.567994
  0
ARC
  8
APS_GEOMETRY
 10
0.343751
 20
0.4375
 40
0.15625
 50
123.367062
 51
236.632718
  0
LINE
  8
APS_GEOMETRY
 10
0.257812
 11
0.257813
 20
0.307006
 21
0.0
  0
LINE
  8
APS_GEOMETRY
 10
0.257813
 11
2.007813
 20
0.0
 21
0.0
  0
LINE
  8
APS_GEOMETRY
 10
2.007813
 11
2.007813
 20
0.0
 21
0.307006
  0
LINE
  8
CONSTRUCTION
 10
0.152615
 11
0.10065
 20
-1.038482
 21
-1.166909
  0
LINE
  8
CONSTRUCTION
 10
0.10065
 11
0.20458
 20
-1.166909
 21
-1.166909
  0
LINE
  8
CONSTRUCTION
 10
0.20458
 11
0.152615
 20
-1.166909
 21
-1.038482
  0
LINE
  8
CONSTRUCTION
 10
0.152615
 11
0.559547
 20
-1.038482
 21
-1.03848
  0
LINE
  8
CONSTRUCTION
 10
0.559547
 11
0.507582
 20
-1.03848
 21
-1.166908
  0
LINE
  8
CONSTRUCTION
 10
0.507582
 11
0.611512
 20
-1.166908
 21
-1.166908
  0
LINE
  8
CONSTRUCTION
 10
0.611512
 11
0.559547
 20
-1.166908
 21
-1.03848
  0
LINE
  8
CONSTRUCTION
 10
0.559547
 11
0.966478
 20
-1.03848
 21
-1.03848
  0
LINE
  8
CONSTRUCTION
 10
0.966478
 11
0.914513
 20
-1.03848
 21
-1.166908
  0
LINE
  8
CONSTRUCTION
 10
0.914513
 11
1.018442
 20
-1.166908
 21
-1.166908
  0
LINE
  8
CONSTRUCTION
 10
1.018442
 11
0.966478
 20
-1.166908
 21
-1.03848
  0
LINE
  8
CONSTRUCTION
 10
0.966478
 11
1.373408
 20
-1.03848
 21
-1.03848
  0
LINE
  8
CONSTRUCTION
 10
1.373408
 11
1.321443
 20
-1.03848
 21
-1.166908
  0
LINE
  8
CONSTRUCTION
 10
1.321443
 11
1.425373
 20
-1.166908
 21
-1.166908
  0
LINE
  8
CONSTRUCTION
 10
1.425373
 11
1.373408
 20
-1.166908
 21
-1.03848
  0
LINE
  8
CONSTRUCTION
 10
1.373408
 11
1.780281
 20
-1.03848
 21
-1.038482
  0
LINE
  8
CONSTRUCTION
 10
1.780281
 11
1.728316
 20
-1.038482
 21
-1.166909
  0
LINE
  8
CONSTRUCTION
 10
1.728316
 11
1.832246
 20
-1.166909
 21
-1.166909
  0
LINE
  8
CONSTRUCTION
 10
1.832246
 11
1.780281
 20
-1.166909
 21
-1.038482
  0
LINE
  8
CONSTRUCTION
 10
0.0
 11
4.0
 20
-1.561751
 21
-1.561751
  0
TEXT
  8
TEXT
 10
0.10065
 20
-1.405784
 30
0.0
 40
0.224
 50
0.0
  1
DOVETAIL DESIGNS
  0
TEXT
  8
TEXT
 10
2.276036
 20
-1.551751
 30
0.0
 40
0.099
 50
0.0
  1
& MILLWORK INC.
  0
TEXT
  8
TEXT
 10
1.092458
 20
-1.640461
 30
0.0
 40
0.07
 50
0.0
  1
Established 1979
  0
TEXT
  8
TEXT
 10
0.1
 20
-1.8
 30
0.0
 40
0.1
 50
0.0
  1
Phone: (406) 248-5010    Website: www.dovetailmt.com
  0
TEXT
  8
TEXT
 10
0.0
 20
-0.5
 30
0.0
 40
0.1
 50
0.0
  1
2-17/64"x2-25/64"
  0
TEXT
  8
TEXT
 10
0.0
 20
-0.25
 30
0.0
 40
0.15625
 50
0.0
  1
HR39
  0
ENDSEC
  0
EOF
