  0
SECTION
  2
ENTITIES
  0
LINE
  8
APS_GEOMETRY
 10
0.5
 11
35.5
 20
71.0
 21
71.0
  0
LINE
  8
APS_GEOMETRY
 10
35.5
 11
35.5
 20
71.0
 21
71.25
  0
LINE
  8
APS_GEOMETRY
 10
35.5
 11
0.5
 20
71.25
 21
71.25
  0
LINE
  8
APS_GEOMETRY
 10
0.5
 11
0.5
 20
71.25
 21
71.0
  0
LINE
  8
APS_GEOMETRY
 10
0.0
 11
36.0
 20
48.75
 21
48.75
  0
LINE
  8
APS_GEOMETRY
 10
36.0
 11
36.0
 20
48.75
 21
72.0
  0
LINE
  8
APS_GEOMETRY
 10
36.0
 11
0.0
 20
72.0
 21
72.0
  0
LINE
  8
APS_GEOMETRY
 10
0.0
 11
0.0
 20
72.0
 21
48.75
  0
LINE
  8
APS_GEOMETRY
 10
0.75
 11
0.75
 20
48.75
 21
71.0
  0
LINE
  8
APS_GEOMETRY
 10
0.75
 11
0.75
 20
71.25
 21
72.0
  0
LINE
  8
APS_GEOMETRY
 10
35.25
 11
35.25
 20
48.75
 21
71.0
  0
LINE
  8
APS_GEOMETRY
 10
35.25
 11
35.25
 20
71.25
 21
72.0
  0
LINE
  8
APS_GEOMETRY
 10
0.75
 11
35.25
 20
52.75
 21
52.75
  0
LINE
  8
APS_GEOMETRY
 10
0.75
 11
35.25
 20
67.0
 21
67.0
  0
LINE
  8
APS_GEOMETRY
 10
1.3125
 11
1.3125
 20
52.75
 21
67.0
  0
LINE
  8
APS_GEOMETRY
 10
2.0625
 11
2.0625
 20
52.75
 21
67.0
  0
LINE
  8
APS_GEOMETRY
 10
16.3125
 11
16.3125
 20
52.75
 21
67.0
  0
LINE
  8
APS_GEOMETRY
 10
17.0625
 11
17.0625
 20
52.75
 21
67.0
  0
LINE
  8
APS_GEOMETRY
 10
17.625
 11
17.625
 20
52.75
 21
67.0
  0
LINE
  8
APS_GEOMETRY
 10
18.375
 11
18.375
 20
52.75
 21
67.0
  0
LINE
  8
APS_GEOMETRY
 10
18.9375
 11
18.9375
 20
52.75
 21
67.0
  0
LINE
  8
APS_GEOMETRY
 10
19.6875
 11
19.6875
 20
52.75
 21
67.0
  0
LINE
  8
APS_GEOMETRY
 10
33.9375
 11
33.9375
 20
52.75
 21
67.0
  0
LINE
  8
APS_GEOMETRY
 10
34.6875
 11
34.6875
 20
52.75
 21
67.0
  0
LINE
  8
APS_GEOMETRY
 10
0.0625
 11
0.0625
 20
48.75
 21
48.0
  0
LINE
  8
APS_GEOMETRY
 10
0.0625
 11
17.9375
 20
48.0
 21
48.0
  0
LINE
  8
APS_GEOMETRY
 10
17.9375
 11
17.9375
 20
48.0
 21
48.75
  0
LINE
  8
APS_GEOMETRY
 10
18.0625
 11
18.0625
 20
48.75
 21
48.0
  0
LINE
  8
APS_GEOMETRY
 10
18.0625
 11
35.9375
 20
48.0
 21
48.0
  0
LINE
  8
APS_GEOMETRY
 10
35.9375
 11
35.9375
 20
48.0
 21
48.75
  0
LINE
  8
APS_GEOMETRY
 10
10.875
 11
10.875
 20
48.0
 21
47.25
  0
ARC
  8
APS_GEOMETRY
 10
10.625
 20
47.25
 40
0.25
 50
270.0
 51
360.0
  0
LINE
  8
APS_GEOMETRY
 10
10.625
 11
7.375
 20
47.0
 21
47.0
  0
ARC
  8
APS_GEOMETRY
 10
7.375
 20
47.25
 40
0.25
 50
180.0
 51
270.0
  0
LINE
  8
APS_GEOMETRY
 10
7.125
 11
7.125
 20
47.25
 21
48.0
  0
LINE
  8
APS_GEOMETRY
 10
6.875
 11
6.875
 20
48.0
 21
47.25
  0
ARC
  8
APS_GEOMETRY
 10
7.375
 20
47.25
 40
0.5
 50
180.0
 51
270.0
  0
LINE
  8
APS_GEOMETRY
 10
7.375
 11
10.625
 20
46.75
 21
46.75
  0
ARC
  8
APS_GEOMETRY
 10
10.625
 20
47.25
 40
0.5
 50
270.0
 51
0.0
  0
LINE
  8
APS_GEOMETRY
 10
11.125
 11
11.125
 20
47.25
 21
48.0
  0
LINE
  8
APS_GEOMETRY
 10
28.875
 11
28.875
 20
48.0
 21
47.25
  0
ARC
  8
APS_GEOMETRY
 10
28.625
 20
47.25
 40
0.25
 50
270.0
 51
360.0
  0
LINE
  8
APS_GEOMETRY
 10
28.625
 11
25.375
 20
47.0
 21
47.0
  0
ARC
  8
APS_GEOMETRY
 10
25.375
 20
47.25
 40
0.25
 50
180.0
 51
270.0
  0
LINE
  8
APS_GEOMETRY
 10
25.125
 11
25.125
 20
47.25
 21
48.0
  0
LINE
  8
APS_GEOMETRY
 10
24.875
 11
24.875
 20
48.0
 21
47.25
  0
ARC
  8
APS_GEOMETRY
 10
25.375
 20
47.25
 40
0.5
 50
180.0
 51
270.0
  0
LINE
  8
APS_GEOMETRY
 10
25.375
 11
28.625
 20
46.75
 21
46.75
  0
ARC
  8
APS_GEOMETRY
 10
28.625
 20
47.25
 40
0.5
 50
270.0
 51
0.0
  0
LINE
  8
APS_GEOMETRY
 10
29.125
 11
29.125
 20
47.25
 21
48.0
  0
LINE
  8
APS_GEOMETRY
 10
15.8125
 11
15.8125
 20
48.0
 21
46.875
  0
ARC
  8
APS_GEOMETRY
 10
15.9375
 20
46.875
 40
0.125
 50
180.0
 51
0.0
  0
LINE
  8
APS_GEOMETRY
 10
16.0625
 11
16.0625
 20
46.875
 21
48.0
  0
LINE
  8
APS_GEOMETRY
 10
19.9375
 11
19.9375
 20
48.0
 21
46.875
  0
ARC
  8
APS_GEOMETRY
 10
20.0625
 20
46.875
 40
0.125
 50
180.0
 51
0.0
  0
LINE
  8
APS_GEOMETRY
 10
20.1875
 11
20.1875
 20
46.875
 21
48.0
  0
LINE
  8
APS_GEOMETRY
 10
0.0
 11
36.0
 20
4.0
 21
4.0
  0
LINE
  8
APS_GEOMETRY
 10
36.0
 11
36.0
 20
4.0
 21
34.5
  0
LINE
  8
APS_GEOMETRY
 10
36.0
 11
0.0
 20
34.5
 21
34.5
  0
LINE
  8
APS_GEOMETRY
 10
0.0
 11
0.0
 20
34.5
 21
4.0
  0
LINE
  8
APS_GEOMETRY
 10
0.0625
 11
17.9375
 20
28.375
 21
28.375
  0
LINE
  8
APS_GEOMETRY
 10
17.9375
 11
17.9375
 20
28.375
 21
34.375
  0
LINE
  8
APS_GEOMETRY
 10
17.9375
 11
0.0625
 20
34.375
 21
34.375
  0
LINE
  8
APS_GEOMETRY
 10
0.0625
 11
0.0625
 20
34.375
 21
28.375
  0
LINE
  8
APS_GEOMETRY
 10
18.0625
 11
35.9375
 20
28.375
 21
28.375
  0
LINE
  8
APS_GEOMETRY
 10
35.9375
 11
35.9375
 20
28.375
 21
34.375
  0
LINE
  8
APS_GEOMETRY
 10
35.9375
 11
18.0625
 20
34.375
 21
34.375
  0
LINE
  8
APS_GEOMETRY
 10
18.0625
 11
18.0625
 20
34.375
 21
28.375
  0
LINE
  8
APS_GEOMETRY
 10
0.0625
 11
0.0625
 20
4.0
 21
28.25
  0
LINE
  8
APS_GEOMETRY
 10
0.0625
 11
17.9375
 20
28.25
 21
28.25
  0
LINE
  8
APS_GEOMETRY
 10
17.9375
 11
17.9375
 20
28.25
 21
4.0
  0
LINE
  8
APS_GEOMETRY
 10
18.0625
 11
18.0625
 20
4.0
 21
28.25
  0
LINE
  8
APS_GEOMETRY
 10
18.0625
 11
35.9375
 20
28.25
 21
28.25
  0
LINE
  8
APS_GEOMETRY
 10
35.9375
 11
35.9375
 20
28.25
 21
4.0
  0
LINE
  8
APS_GEOMETRY
 10
1.0
 11
1.0
 20
4.0
 21
0.0
  0
LINE
  8
APS_GEOMETRY
 10
1.0
 11
35.0
 20
0.0
 21
0.0
  0
LINE
  8
APS_GEOMETRY
 10
35.0
 11
35.0
 20
0.0
 21
4.0
  0
ARC
  8
APS_GEOMETRY
 10
7.0
 20
31.375
 40
0.125
 50
90.0
 51
270.0
  0
LINE
  8
APS_GEOMETRY
 10
7.0
 11
11.0
 20
31.25
 21
31.25
  0
ARC
  8
APS_GEOMETRY
 10
11.0
 20
31.375
 40
0.125
 50
270.0
 51
90.0
  0
LINE
  8
APS_GEOMETRY
 10
11.0
 11
7.0
 20
31.5
 21
31.5
  0
ARC
  8
APS_GEOMETRY
 10
25.0
 20
31.375
 40
0.125
 50
90.0
 51
270.0
  0
LINE
  8
APS_GEOMETRY
 10
25.0
 11
29.0
 20
31.25
 21
31.25
  0
ARC
  8
APS_GEOMETRY
 10
29.0
 20
31.375
 40
0.125
 50
270.0
 51
90.0
  0
LINE
  8
APS_GEOMETRY
 10
29.0
 11
25.0
 20
31.5
 21
31.5
  0
ARC
  8
APS_GEOMETRY
 10
15.9375
 20
26.25
 40
0.125
 50
0.0
 51
180.0
  0
LINE
  8
APS_GEOMETRY
 10
15.8125
 11
15.8125
 20
26.25
 21
22.25
  0
ARC
  8
APS_GEOMETRY
 10
15.9375
 20
22.25
 40
0.125
 50
180.0
 51
0.0
  0
LINE
  8
APS_GEOMETRY
 10
16.0625
 11
16.0625
 20
22.25
 21
26.25
  0
ARC
  8
APS_GEOMETRY
 10
20.0625
 20
26.25
 40
0.125
 50
0.0
 51
180.0
  0
LINE
  8
APS_GEOMETRY
 10
19.9375
 11
19.9375
 20
26.25
 21
22.25
  0
ARC
  8
APS_GEOMETRY
 10
20.0625
 20
22.25
 40
0.125
 50
180.0
 51
0.0
  0
LINE
  8
APS_GEOMETRY
 10
20.1875
 11
20.1875
 20
22.25
 21
26.25
  0
LINE
  8
APS_GEOMETRY
 10
48.75
 11
48.0
 20
28.25
 21
28.25
  0
LINE
  8
APS_GEOMETRY
 10
48.0
 11
48.0
 20
28.25
 21
4.0
  0
LINE
  8
APS_GEOMETRY
 10
48.0
 11
72.0
 20
4.0
 21
4.0
  0
LINE
  8
APS_GEOMETRY
 10
71.25
 11
71.25
 20
4.0
 21
0.0
  0
LINE
  8
APS_GEOMETRY
 10
71.25
 11
72.0
 20
0.0
 21
0.0
  0
LINE
  8
APS_GEOMETRY
 10
72.0
 11
72.0
 20
0.0
 21
34.5
  0
LINE
  8
APS_GEOMETRY
 10
72.0
 11
48.75
 20
34.5
 21
34.5
  0
LINE
  8
APS_GEOMETRY
 10
48.75
 11
48.75
 20
34.5
 21
4.0
  0
LINE
  8
APS_GEOMETRY
 10
71.0
 11
71.0
 20
34.5
 21
4.5
  0
LINE
  8
APS_GEOMETRY
 10
71.0
 11
71.25
 20
4.5
 21
4.5
  0
LINE
  8
APS_GEOMETRY
 10
71.25
 11
71.25
 20
4.5
 21
34.5
  0
LINE
  8
APS_GEOMETRY
 10
49.25
 11
70.25
 20
29.1875
 21
29.1875
  0
LINE
  8
APS_GEOMETRY
 10
70.25
 11
70.25
 20
29.1875
 21
29.4375
  0
LINE
  8
APS_GEOMETRY
 10
70.25
 11
49.25
 20
29.4375
 21
29.4375
  0
LINE
  8
APS_GEOMETRY
 10
49.25
 11
49.25
 20
29.4375
 21
29.1875
  0
LINE
  8
APS_GEOMETRY
 10
48.75
 11
48.0
 20
28.375
 21
28.375
  0
LINE
  8
APS_GEOMETRY
 10
48.0
 11
48.0
 20
28.375
 21
34.375
  0
LINE
  8
APS_GEOMETRY
 10
48.0
 11
48.75
 20
34.375
 21
34.375
  0
LINE
  8
APS_GEOMETRY
 10
51.0
 11
51.0
 20
4.0
 21
0.0
  0
LINE
  8
APS_GEOMETRY
 10
51.0
 11
51.75
 20
0.0
 21
0.0
  0
LINE
  8
APS_GEOMETRY
 10
51.75
 11
51.75
 20
0.0
 21
4.0
  0
LINE
  8
APS_GEOMETRY
 10
51.75
 11
53.75
 20
3.25
 21
3.25
  0
LINE
  8
APS_GEOMETRY
 10
53.75
 11
53.75
 20
3.25
 21
4.0
  0
LINE
  8
APS_GEOMETRY
 10
69.25
 11
69.25
 20
4.0
 21
3.25
  0
LINE
  8
APS_GEOMETRY
 10
69.25
 11
71.25
 20
3.25
 21
3.25
  0
LINE
  8
APS_GEOMETRY
 10
51.75
 11
71.25
 20
0.5
 21
0.5
  0
LINE
  8
APS_GEOMETRY
 10
71.0
 11
48.875
 20
15.78937
 21
15.78937
  0
LINE
  8
APS_GEOMETRY
 10
48.875
 11
48.875
 20
15.78937
 21
16.53937
  0
LINE
  8
APS_GEOMETRY
 10
48.875
 11
71.0
 20
16.53937
 21
16.53937
  0
LINE
  8
APS_GEOMETRY
 10
48.75
 11
71.0
 20
4.75
 21
4.75
  0
LINE
  8
APS_GEOMETRY
 10
48.75
 11
52.75
 20
27.9375
 21
27.9375
  0
LINE
  8
APS_GEOMETRY
 10
52.75
 11
52.75
 20
27.9375
 21
28.6875
  0
LINE
  8
APS_GEOMETRY
 10
48.75
 11
70.75
 20
28.9375
 21
28.9375
  0
LINE
  8
APS_GEOMETRY
 10
70.75
 11
70.75
 20
28.9375
 21
32.9375
  0
LINE
  8
APS_GEOMETRY
 10
70.75
 11
48.75
 20
32.9375
 21
32.9375
  0
LINE
  8
APS_GEOMETRY
 10
48.75
 11
71.0
 20
28.6875
 21
28.6875
  0
LINE
  8
APS_GEOMETRY
 10
48.75
 11
71.0
 20
33.75
 21
33.75
  0
LINE
  8
APS_GEOMETRY
 10
49.5
 11
49.5
 20
28.9375
 21
29.1875
  0
LINE
  8
APS_GEOMETRY
 10
49.5
 11
49.5
 20
29.4375
 21
32.9375
  0
LINE
  8
APS_GEOMETRY
 10
70.0
 11
70.0
 20
28.9375
 21
29.1875
  0
LINE
  8
APS_GEOMETRY
 10
70.0
 11
70.0
 20
29.4375
 21
32.9375
  0
LINE
  8
APS_GEOMETRY
 10
52.75
 11
52.75
 20
33.75
 21
34.5
  0
LINE
  8
APS_GEOMETRY
 10
67.0
 11
67.0
 20
33.75
 21
34.5
  0
LINE
  8
APS_GEOMETRY
 10
71.25
 11
72.0
 20
4.75
 21
4.75
  0
LINE
  8
APS_GEOMETRY
 10
71.25
 11
72.0
 20
8.75
 21
8.75
  0
LINE
  8
APS_GEOMETRY
 10
71.25
 11
72.0
 20
30.5
 21
30.5
  0
CIRCLE
  8
APS_GEOMETRY
 10
69.75
 20
10.75
 40
0.098425
  0
CIRCLE
  8
APS_GEOMETRY
 10
69.75
 20
12.009843
 40
0.098425
  0
CIRCLE
  8
APS_GEOMETRY
 10
69.75
 20
13.269685
 40
0.098425
  0
CIRCLE
  8
APS_GEOMETRY
 10
69.75
 20
14.529528
 40
0.098425
  0
CIRCLE
  8
APS_GEOMETRY
 10
69.75
 20
15.78937
 40
0.098425
  0
CIRCLE
  8
APS_GEOMETRY
 10
69.75
 20
17.049213
 40
0.098425
  0
CIRCLE
  8
APS_GEOMETRY
 10
69.75
 20
18.309055
 40
0.098425
  0
CIRCLE
  8
APS_GEOMETRY
 10
69.75
 20
19.568898
 40
0.098425
  0
CIRCLE
  8
APS_GEOMETRY
 10
69.75
 20
20.82874
 40
0.098425
  0
CIRCLE
  8
APS_GEOMETRY
 10
50.0
 20
10.75
 40
0.098425
  0
CIRCLE
  8
APS_GEOMETRY
 10
50.0
 20
12.009843
 40
0.098425
  0
CIRCLE
  8
APS_GEOMETRY
 10
50.0
 20
13.269685
 40
0.098425
  0
CIRCLE
  8
APS_GEOMETRY
 10
50.0
 20
14.529528
 40
0.098425
  0
CIRCLE
  8
APS_GEOMETRY
 10
50.0
 20
15.78937
 40
0.098425
  0
CIRCLE
  8
APS_GEOMETRY
 10
50.0
 20
17.049213
 40
0.098425
  0
CIRCLE
  8
APS_GEOMETRY
 10
50.0
 20
18.309055
 40
0.098425
  0
CIRCLE
  8
APS_GEOMETRY
 10
50.0
 20
19.568898
 40
0.098425
  0
CIRCLE
  8
APS_GEOMETRY
 10
50.0
 20
20.82874
 40
0.098425
  0
LINE
  8
APS_GEOMETRY
 10
48.0
 11
46.875
 20
31.5
 21
31.5
  0
ARC
  8
APS_GEOMETRY
 10
46.875
 20
31.375
 40
0.125
 50
90.0
 51
270.0
  0
LINE
  8
APS_GEOMETRY
 10
46.875
 11
48.0
 20
31.25
 21
31.25
  0
LINE
  8
APS_GEOMETRY
 10
48.0
 11
47.25
 20
22.375
 21
22.375
  0
ARC
  8
APS_GEOMETRY
 10
47.25
 20
22.625
 40
0.25
 50
180.0
 51
270.0
  0
LINE
  8
APS_GEOMETRY
 10
47.0
 11
47.0
 20
22.625
 21
25.875
  0
ARC
  8
APS_GEOMETRY
 10
47.25
 20
25.875
 40
0.25
 50
90.0
 51
180.0
  0
LINE
  8
APS_GEOMETRY
 10
47.25
 11
48.0
 20
26.125
 21
26.125
  0
LINE
  8
APS_GEOMETRY
 10
48.0
 11
47.25
 20
26.375
 21
26.375
  0
ARC
  8
APS_GEOMETRY
 10
47.25
 20
25.875
 40
0.5
 50
90.0
 51
180.0
  0
LINE
  8
APS_GEOMETRY
 10
46.75
 11
46.75
 20
25.875
 21
22.625
  0
ARC
  8
APS_GEOMETRY
 10
47.25
 20
22.625
 40
0.5
 50
180.0
 51
270.0
  0
LINE
  8
APS_GEOMETRY
 10
47.25
 11
48.0
 20
22.125
 21
22.125
  0
LINE
  8
DIMENSIONS
 10
0.0
 11
0.0
 20
72.5
 21
76.5
  0
LINE
  8
DIMENSIONS
 10
36.0
 11
36.0
 20
72.5
 21
76.5
  0
LINE
  8
DIMENSIONS
 10
0.0
 11
6.0
 20
76.0
 21
76.0
  0
LINE
  8
DIMENSIONS
 10
30.0
 11
36.0
 20
76.0
 21
76.0
  0
LINE
  8
DIMENSIONS
 10
1.0
 11
0.0
 20
75.8333
 21
76.0
  0
LINE
  8
DIMENSIONS
 10
0.0
 11
1.0
 20
76.0
 21
76.1667
  0
LINE
  8
DIMENSIONS
 10
1.0
 11
1.0
 20
76.1667
 21
75.8333
  0
LINE
  8
DIMENSIONS
 10
35.0
 11
36.0
 20
76.1667
 21
76.0
  0
LINE
  8
DIMENSIONS
 10
36.0
 11
35.0
 20
76.0
 21
75.8333
  0
LINE
  8
DIMENSIONS
 10
35.0
 11
35.0
 20
75.8333
 21
76.1667
  0
LINE
  8
CONSTRUCTION
 10
13.831379
 11
13.2078
 20
-12.46178
 21
-14.002913
  0
LINE
  8
CONSTRUCTION
 10
13.2078
 11
14.454958
 20
-14.002913
 21
-14.002913
  0
LINE
  8
CONSTRUCTION
 10
14.454958
 11
13.831379
 20
-14.002913
 21
-12.46178
  0
LINE
  8
CONSTRUCTION
 10
13.831379
 11
18.714561
 20
-12.46178
 21
-12.461764
  0
LINE
  8
CONSTRUCTION
 10
18.714561
 11
18.090982
 20
-12.461764
 21
-14.002897
  0
LINE
  8
CONSTRUCTION
 10
18.090982
 11
19.33814
 20
-14.002897
 21
-14.002897
  0
LINE
  8
CONSTRUCTION
 10
19.33814
 11
18.714561
 20
-14.002897
 21
-12.461764
  0
LINE
  8
CONSTRUCTION
 10
18.714561
 11
23.597731
 20
-12.461764
 21
-12.461764
  0
LINE
  8
CONSTRUCTION
 10
23.597731
 11
22.974152
 20
-12.461764
 21
-14.002897
  0
LINE
  8
CONSTRUCTION
 10
22.974152
 11
24.22131
 20
-14.002897
 21
-14.002897
  0
LINE
  8
CONSTRUCTION
 10
24.22131
 11
23.597731
 20
-14.002897
 21
-12.461764
  0
LINE
  8
CONSTRUCTION
 10
23.597731
 11
28.480901
 20
-12.461764
 21
-12.461764
  0
LINE
  8
CONSTRUCTION
 10
28.480901
 11
27.857322
 20
-12.461764
 21
-14.002897
  0
LINE
  8
CONSTRUCTION
 10
27.857322
 11
29.10448
 20
-14.002897
 21
-14.002897
  0
LINE
  8
CONSTRUCTION
 10
29.10448
 11
28.480901
 20
-14.002897
 21
-12.461764
  0
LINE
  8
CONSTRUCTION
 10
28.480901
 11
33.363373
 20
-12.461764
 21
-12.46178
  0
LINE
  8
CONSTRUCTION
 10
33.363373
 11
32.739794
 20
-12.46178
 21
-14.002913
  0
LINE
  8
CONSTRUCTION
 10
32.739794
 11
33.986952
 20
-14.002913
 21
-14.002913
  0
LINE
  8
CONSTRUCTION
 10
33.986952
 11
33.363373
 20
-14.002913
 21
-12.46178
  0
LINE
  8
CONSTRUCTION
 10
12.0
 11
60.0
 20
-18.74101
 21
-18.74101
  0
TEXT
  8
TEXT
 10
13.2
 20
-21.6
 30
0.0
 40
1.2
 50
0.0
  1
Phone: (406) 248-5010    Website: www.dovetailmt.com
  0
TEXT
  8
TEXT
 10
25.109495
 20
-19.685533
 30
0.0
 40
0.84
 50
0.0
  1
Established 1979
  0
TEXT
  8
TEXT
 10
39.312436
 20
-18.62101
 30
0.0
 40
1.188
 50
0.0
  1
& MILLWORK INC.
  0
TEXT
  8
TEXT
 10
13.2078
 20
-16.869403
 30
0.0
 40
2.688
 50
0.0
  1
DOVETAIL DESIGNS
  0
TEXT
  8
TEXT
 10
18.0
 20
75.5
 30
0.0
 40
1.0
 50
0.0
  1
CABINETS EXCEEDING 36" WIDE
  0
TEXT
  8
TEXT
 10
18.0
 20
74.0
 30
0.0
 40
1.0
 50
0.0
  1
WILL NEED A PARTITION
  0
ENDSEC
  0
EOF
