  0
SECTION
  2
ENTITIES
  0
LINE
  8
APS_GEOMETRY
 10
0.0
 11
0.0
 20
4.0
 21
0.0
  0
LINE
  8
APS_GEOMETRY
 10
0.0
 11
0.75
 20
0.0
 21
0.0
  0
LINE
  8
APS_GEOMETRY
 10
0.75
 11
0.75
 20
0.0
 21
0.75
  0
LINE
  8
APS_GEOMETRY
 10
0.75
 11
0.625
 20
0.75
 21
0.875
  0
LINE
  8
APS_GEOMETRY
 10
0.625
 11
0.625
 20
0.875
 21
1.0
  0
LINE
  8
APS_GEOMETRY
 10
0.625
 11
0.5
 20
1.0
 21
1.004365
  0
LINE
  8
APS_GEOMETRY
 10
0.5
 11
0.5
 20
1.004365
 21
1.120635
  0
LINE
  8
APS_GEOMETRY
 10
0.5
 11
0.625
 20
1.120635
 21
1.125
  0
LINE
  8
APS_GEOMETRY
 10
0.625
 11
0.625
 20
1.125
 21
1.25
  0
LINE
  8
APS_GEOMETRY
 10
0.625
 11
0.5
 20
1.25
 21
1.254365
  0
LINE
  8
APS_GEOMETRY
 10
0.5
 11
0.5
 20
1.254365
 21
1.370635
  0
LINE
  8
APS_GEOMETRY
 10
0.5
 11
0.625
 20
1.370635
 21
1.375
  0
LINE
  8
APS_GEOMETRY
 10
0.625
 11
0.625
 20
1.375
 21
2.625
  0
LINE
  8
APS_GEOMETRY
 10
0.625
 11
0.5
 20
2.625
 21
2.629365
  0
LINE
  8
APS_GEOMETRY
 10
0.5
 11
0.5
 20
2.629365
 21
2.745635
  0
LINE
  8
APS_GEOMETRY
 10
0.5
 11
0.625
 20
2.745635
 21
2.75
  0
LINE
  8
APS_GEOMETRY
 10
0.625
 11
0.625
 20
2.75
 21
2.875
  0
LINE
  8
APS_GEOMETRY
 10
0.625
 11
0.5
 20
2.875
 21
2.879365
  0
LINE
  8
APS_GEOMETRY
 10
0.5
 11
0.5
 20
2.879365
 21
2.995635
  0
LINE
  8
APS_GEOMETRY
 10
0.5
 11
0.625
 20
2.995635
 21
3.0
  0
LINE
  8
APS_GEOMETRY
 10
0.625
 11
0.625
 20
3.0
 21
3.125
  0
LINE
  8
APS_GEOMETRY
 10
0.625
 11
0.75
 20
3.125
 21
3.25
  0
LINE
  8
APS_GEOMETRY
 10
0.75
 11
0.75
 20
3.25
 21
4.0
  0
LINE
  8
APS_GEOMETRY
 10
0.75
 11
0.0
 20
4.0
 21
4.0
  0
LINE
  8
CONSTRUCTION
 10
0.152615
 11
0.10065
 20
-1.038482
 21
-1.166909
  0
LINE
  8
CONSTRUCTION
 10
0.10065
 11
0.20458
 20
-1.166909
 21
-1.166909
  0
LINE
  8
CONSTRUCTION
 10
0.20458
 11
0.152615
 20
-1.166909
 21
-1.038482
  0
LINE
  8
CONSTRUCTION
 10
0.152615
 11
0.559547
 20
-1.038482
 21
-1.03848
  0
LINE
  8
CONSTRUCTION
 10
0.559547
 11
0.507582
 20
-1.03848
 21
-1.166908
  0
LINE
  8
CONSTRUCTION
 10
0.507582
 11
0.611512
 20
-1.166908
 21
-1.166908
  0
LINE
  8
CONSTRUCTION
 10
0.611512
 11
0.559547
 20
-1.166908
 21
-1.03848
  0
LINE
  8
CONSTRUCTION
 10
0.559547
 11
0.966478
 20
-1.03848
 21
-1.03848
  0
LINE
  8
CONSTRUCTION
 10
0.966478
 11
0.914513
 20
-1.03848
 21
-1.166908
  0
LINE
  8
CONSTRUCTION
 10
0.914513
 11
1.018442
 20
-1.166908
 21
-1.166908
  0
LINE
  8
CONSTRUCTION
 10
1.018442
 11
0.966478
 20
-1.166908
 21
-1.03848
  0
LINE
  8
CONSTRUCTION
 10
0.966478
 11
1.373408
 20
-1.03848
 21
-1.03848
  0
LINE
  8
CONSTRUCTION
 10
1.373408
 11
1.321443
 20
-1.03848
 21
-1.166908
  0
LINE
  8
CONSTRUCTION
 10
1.321443
 11
1.425373
 20
-1.166908
 21
-1.166908
  0
LINE
  8
CONSTRUCTION
 10
1.425373
 11
1.373408
 20
-1.166908
 21
-1.03848
  0
LINE
  8
CONSTRUCTION
 10
1.373408
 11
1.780281
 20
-1.03848
 21
-1.038482
  0
LINE
  8
CONSTRUCTION
 10
1.780281
 11
1.728316
 20
-1.038482
 21
-1.166909
  0
LINE
  8
CONSTRUCTION
 10
1.728316
 11
1.832246
 20
-1.166909
 21
-1.166909
  0
LINE
  8
CONSTRUCTION
 10
1.832246
 11
1.780281
 20
-1.166909
 21
-1.038482
  0
LINE
  8
CONSTRUCTION
 10
0.0
 11
4.0
 20
-1.561751
 21
-1.561751
  0
TEXT
  8
TEXT
 10
0.10065
 20
-1.405784
 30
0.0
 40
0.224
 50
0.0
  1
DOVETAIL DESIGNS
  0
TEXT
  8
TEXT
 10
2.276036
 20
-1.551751
 30
0.0
 40
0.099
 50
0.0
  1
& MILLWORK INC.
  0
TEXT
  8
TEXT
 10
1.092458
 20
-1.640461
 30
0.0
 40
0.07
 50
0.0
  1
Established 1979
  0
TEXT
  8
TEXT
 10
0.1
 20
-1.8
 30
0.0
 40
0.1
 50
0.0
  1
Phone: (406) 248-5010    Website: www.dovetailmt.com
  0
TEXT
  8
TEXT
 10
0.0
 20
-0.5
 30
0.0
 40
0.1
 50
0.0
  1
3/4"x4"
  0
TEXT
  8
TEXT
 10
0.0
 20
-0.25
 30
0.0
 40
0.15625
 50
0.0
  1
CR45
  0
ENDSEC
  0
EOF
