  0
SECTION
  2
ENTITIES
  0
ARC
  8
APS_GEOMETRY
 10
0.49919
 20
2.070935
 40
0.147842
 50
60.606089
 51
89.686278
  0
LINE
  8
APS_GEOMETRY
 10
0.5
 11
0.0
 20
2.218775
 21
2.218775
  0
LINE
  8
APS_GEOMETRY
 10
0.0
 11
0.0
 20
2.218775
 21
0.0
  0
LINE
  8
APS_GEOMETRY
 10
0.0
 11
0.1875
 20
0.0
 21
0.0
  0
ARC
  8
APS_GEOMETRY
 10
0.187572
 20
0.100033
 40
0.100033
 50
269.958799
 51
290.973233
  0
ARC
  8
APS_GEOMETRY
 10
0.18964
 20
0.094933
 40
0.094531
 50
290.909015
 51
312.735682
  0
ARC
  8
APS_GEOMETRY
 10
0.19481
 20
0.089374
 40
0.086939
 50
312.719634
 51
335.807673
  0
ARC
  8
APS_GEOMETRY
 10
0.199544
 20
0.087141
 40
0.081706
 50
335.875353
 51
359.945953
  0
ARC
  8
APS_GEOMETRY
 10
0.390191
 20
0.086962
 40
0.108941
 50
155.875245
 51
179.946294
  0
ARC
  8
APS_GEOMETRY
 10
0.396504
 20
0.083988
 40
0.115918
 50
132.720983
 51
155.808861
  0
ARC
  8
APS_GEOMETRY
 10
0.403394
 20
0.07657
 40
0.126042
 50
110.907136
 51
132.734407
  0
ARC
  8
APS_GEOMETRY
 10
0.406156
 20
0.069772
 40
0.133378
 50
89.959263
 51
110.973393
  0
LINE
  8
APS_GEOMETRY
 10
0.40625
 11
0.40625
 20
0.20315
 21
0.4219
  0
ARC
  8
APS_GEOMETRY
 10
0.303711
 20
0.625025
 40
0.227539
 50
296.784996
 51
63.215004
  0
LINE
  8
APS_GEOMETRY
 10
0.40625
 11
0.672697
 20
0.82815
 21
1.39065
  0
LINE
  8
APS_GEOMETRY
 10
0.672697
 11
0.6875
 20
1.39065
 21
1.39065
  0
ARC
  8
APS_GEOMETRY
 10
0.6875
 20
1.45315
 40
0.0625
 50
270.0
 51
0.0
  0
LINE
  8
APS_GEOMETRY
 10
0.75
 11
0.75
 20
1.45315
 21
1.82815
  0
ARC
  8
APS_GEOMETRY
 10
0.703125
 20
1.82815
 40
0.046875
 50
0.0
 51
90.0
  0
LINE
  8
APS_GEOMETRY
 10
0.703125
 11
0.6875
 20
1.875025
 21
1.875025
  0
LINE
  8
APS_GEOMETRY
 10
0.6875
 11
0.6875
 20
1.875025
 21
1.968775
  0
ARC
  8
APS_GEOMETRY
 10
0.363787
 20
1.969383
 40
0.323714
 50
359.892317
 51
17.077303
  0
ARC
  8
APS_GEOMETRY
 10
0.417336
 20
1.986947
 40
0.26737
 50
16.849309
 51
36.384624
  0
ARC
  8
APS_GEOMETRY
 10
0.475772
 20
2.030772
 40
0.19433
 50
36.202811
 51
60.40244
  0
LINE
  8
CONSTRUCTION
 10
0.152615
 11
0.10065
 20
-1.038482
 21
-1.166909
  0
LINE
  8
CONSTRUCTION
 10
0.10065
 11
0.20458
 20
-1.166909
 21
-1.166909
  0
LINE
  8
CONSTRUCTION
 10
0.20458
 11
0.152615
 20
-1.166909
 21
-1.038482
  0
LINE
  8
CONSTRUCTION
 10
0.152615
 11
0.559547
 20
-1.038482
 21
-1.03848
  0
LINE
  8
CONSTRUCTION
 10
0.559547
 11
0.507582
 20
-1.03848
 21
-1.166908
  0
LINE
  8
CONSTRUCTION
 10
0.507582
 11
0.611512
 20
-1.166908
 21
-1.166908
  0
LINE
  8
CONSTRUCTION
 10
0.611512
 11
0.559547
 20
-1.166908
 21
-1.03848
  0
LINE
  8
CONSTRUCTION
 10
0.559547
 11
0.966478
 20
-1.03848
 21
-1.03848
  0
LINE
  8
CONSTRUCTION
 10
0.966478
 11
0.914513
 20
-1.03848
 21
-1.166908
  0
LINE
  8
CONSTRUCTION
 10
0.914513
 11
1.018442
 20
-1.166908
 21
-1.166908
  0
LINE
  8
CONSTRUCTION
 10
1.018442
 11
0.966478
 20
-1.166908
 21
-1.03848
  0
LINE
  8
CONSTRUCTION
 10
0.966478
 11
1.373408
 20
-1.03848
 21
-1.03848
  0
LINE
  8
CONSTRUCTION
 10
1.373408
 11
1.321443
 20
-1.03848
 21
-1.166908
  0
LINE
  8
CONSTRUCTION
 10
1.321443
 11
1.425373
 20
-1.166908
 21
-1.166908
  0
LINE
  8
CONSTRUCTION
 10
1.425373
 11
1.373408
 20
-1.166908
 21
-1.03848
  0
LINE
  8
CONSTRUCTION
 10
1.373408
 11
1.780281
 20
-1.03848
 21
-1.038482
  0
LINE
  8
CONSTRUCTION
 10
1.780281
 11
1.728316
 20
-1.038482
 21
-1.166909
  0
LINE
  8
CONSTRUCTION
 10
1.728316
 11
1.832246
 20
-1.166909
 21
-1.166909
  0
LINE
  8
CONSTRUCTION
 10
1.832246
 11
1.780281
 20
-1.166909
 21
-1.038482
  0
LINE
  8
CONSTRUCTION
 10
0.0
 11
4.0
 20
-1.561751
 21
-1.561751
  0
TEXT
  8
TEXT
 10
0.10065
 20
-1.405784
 30
0.0
 40
0.224
 50
0.0
  1
DOVETAIL DESIGNS
  0
TEXT
  8
TEXT
 10
2.276036
 20
-1.551751
 30
0.0
 40
0.099
 50
0.0
  1
& MILLWORK INC.
  0
TEXT
  8
TEXT
 10
1.092458
 20
-1.640461
 30
0.0
 40
0.07
 50
0.0
  1
Established 1979
  0
TEXT
  8
TEXT
 10
0.1
 20
-1.8
 30
0.0
 40
0.1
 50
0.0
  1
Phone: (406) 248-5010    Website: www.dovetailmt.com
  0
TEXT
  8
TEXT
 10
0.0
 20
-0.25
 30
0.0
 40
0.15625
 50
0.0
  1
CR40
  0
TEXT
  8
TEXT
 10
0.0
 20
-0.5
 30
0.0
 40
0.1
 50
0.0
  1
3/4"x2-7/32"
  0
ENDSEC
  0
EOF
