  0
SECTION
  2
ENTITIES
  0
ARC
  8
APS_GEOMETRY
 10
0.359336
 20
0.582671
 40
0.425112
 50
270.00004
 51
276.340528
  0
ARC
  8
APS_GEOMETRY
 10
0.353745
 20
0.633012
 40
0.475762
 50
276.340162
 51
282.248499
  0
ARC
  8
APS_GEOMETRY
 10
0.344252
 20
0.676732
 40
0.520501
 50
282.248709
 51
304.114971
  0
ARC
  8
APS_GEOMETRY
 10
0.379326
 20
0.624953
 40
0.457961
 50
304.115219
 51
328.071859
  0
ARC
  8
APS_GEOMETRY
 10
0.355512
 20
0.639786
 40
0.486017
 50
328.072531
 51
333.560478
  0
ARC
  8
APS_GEOMETRY
 10
0.282045
 20
0.676338
 40
0.568075
 50
333.558703
 51
338.464388
  0
ARC
  8
APS_GEOMETRY
 10
0.232287
 20
0.695965
 40
0.621564
 50
338.465116
 51
342.792575
  0
ARC
  8
APS_GEOMETRY
 10
0.106019
 20
0.735062
 40
0.753746
 50
342.793101
 51
346.571461
  0
ARC
  8
APS_GEOMETRY
 10
0.026626
 20
0.754011
 40
0.835369
 50
346.571952
 51
349.83904
  0
ARC
  8
APS_GEOMETRY
 10
-0.166044
 20
0.788565
 40
1.031113
 50
349.837766
 51
352.641927
  0
ARC
  8
APS_GEOMETRY
 10
-0.282397
 20
0.803581
 40
1.148431
 50
352.642398
 51
355.028947
  0
ARC
  8
APS_GEOMETRY
 10
-0.576301
 20
0.829155
 40
1.443446
 50
355.028526
 51
357.031567
  0
ARC
  8
APS_GEOMETRY
 10
-0.762326
 20
0.838759
 40
1.629718
 50
357.033075
 51
358.683017
  0
ARC
  8
APS_GEOMETRY
 10
-1.285447
 20
0.850849
 40
2.152979
 50
358.681314
 51
359.999345
  0
LINE
  8
APS_GEOMETRY
 10
0.867532
 11
1.0472
 20
0.850825
 21
0.850825
  0
LINE
  8
APS_GEOMETRY
 10
1.0472
 11
1.0472
 20
0.850825
 21
1.165943
  0
LINE
  8
APS_GEOMETRY
 10
1.0472
 11
0.58437
 20
1.165943
 21
1.165943
  0
LINE
  8
APS_GEOMETRY
 10
0.58437
 11
0.0
 20
1.165943
 21
0.404378
  0
LINE
  8
APS_GEOMETRY
 10
0.0
 11
0.0
 20
0.404378
 21
0.0
  0
LINE
  8
APS_GEOMETRY
 10
0.0
 11
0.359336
 20
0.0
 21
0.0
  0
LINE
  8
APS_GEOMETRY
 10
0.359336
 11
0.359336
 20
0.0
 21
0.157559
  0
LINE
  8
CONSTRUCTION
 10
0.152615
 11
0.10065
 20
-1.038482
 21
-1.166909
  0
LINE
  8
CONSTRUCTION
 10
0.10065
 11
0.20458
 20
-1.166909
 21
-1.166909
  0
LINE
  8
CONSTRUCTION
 10
0.20458
 11
0.152615
 20
-1.166909
 21
-1.038482
  0
LINE
  8
CONSTRUCTION
 10
0.152615
 11
0.559547
 20
-1.038482
 21
-1.03848
  0
LINE
  8
CONSTRUCTION
 10
0.559547
 11
0.507582
 20
-1.03848
 21
-1.166908
  0
LINE
  8
CONSTRUCTION
 10
0.507582
 11
0.611512
 20
-1.166908
 21
-1.166908
  0
LINE
  8
CONSTRUCTION
 10
0.611512
 11
0.559547
 20
-1.166908
 21
-1.03848
  0
LINE
  8
CONSTRUCTION
 10
0.559547
 11
0.966478
 20
-1.03848
 21
-1.03848
  0
LINE
  8
CONSTRUCTION
 10
0.966478
 11
0.914513
 20
-1.03848
 21
-1.166908
  0
LINE
  8
CONSTRUCTION
 10
0.914513
 11
1.018442
 20
-1.166908
 21
-1.166908
  0
LINE
  8
CONSTRUCTION
 10
1.018442
 11
0.966478
 20
-1.166908
 21
-1.03848
  0
LINE
  8
CONSTRUCTION
 10
0.966478
 11
1.373408
 20
-1.03848
 21
-1.03848
  0
LINE
  8
CONSTRUCTION
 10
1.373408
 11
1.321443
 20
-1.03848
 21
-1.166908
  0
LINE
  8
CONSTRUCTION
 10
1.321443
 11
1.425373
 20
-1.166908
 21
-1.166908
  0
LINE
  8
CONSTRUCTION
 10
1.425373
 11
1.373408
 20
-1.166908
 21
-1.03848
  0
LINE
  8
CONSTRUCTION
 10
1.373408
 11
1.780281
 20
-1.03848
 21
-1.038482
  0
LINE
  8
CONSTRUCTION
 10
1.780281
 11
1.728316
 20
-1.038482
 21
-1.166909
  0
LINE
  8
CONSTRUCTION
 10
1.728316
 11
1.832246
 20
-1.166909
 21
-1.166909
  0
LINE
  8
CONSTRUCTION
 10
1.832246
 11
1.780281
 20
-1.166909
 21
-1.038482
  0
LINE
  8
CONSTRUCTION
 10
0.0
 11
4.0
 20
-1.561751
 21
-1.561751
  0
TEXT
  8
TEXT
 10
0.10065
 20
-1.405784
 30
0.0
 40
0.224
 50
0.0
  1
DOVETAIL DESIGNS
  0
TEXT
  8
TEXT
 10
2.276036
 20
-1.551751
 30
0.0
 40
0.099
 50
0.0
  1
& MILLWORK INC.
  0
TEXT
  8
TEXT
 10
1.092458
 20
-1.640461
 30
0.0
 40
0.07
 50
0.0
  1
Established 1979
  0
TEXT
  8
TEXT
 10
0.1
 20
-1.8
 30
0.0
 40
0.1
 50
0.0
  1
Phone: (406) 248-5010    Website: www.dovetailmt.com
  0
TEXT
  8
TEXT
 10
0.0
 20
-0.25
 30
0.0
 40
0.15625
 50
0.0
  1
CN50
  0
TEXT
  8
TEXT
 10
0.0
 20
-0.5
 30
0.0
 40
0.1
 50
0.0
  1
3-5/16"x7-1/16"
  0
TEXT
  8
TEXT
 10
0.0
 20
-0.65
 30
0.0
 40
0.1
 50
0.0
  1
(1-1/2"x7-9/16")
  0
ENDSEC
  0
EOF
