  0
SECTION
  2
ENTITIES
  0
ARC
  8
APS_GEOMETRY
 10
-1.306871
 20
3.29217
 40
3.935269
 50
342.233353
 51
344.535335
  0
LINE
  8
APS_GEOMETRY
 10
2.485922
 11
3.038349
 20
2.242854
 21
2.375437
  0
LINE
  8
APS_GEOMETRY
 10
3.038349
 11
2.916815
 20
2.375437
 21
2.916815
  0
LINE
  8
APS_GEOMETRY
 10
2.916815
 11
2.541165
 20
2.916815
 21
2.916815
  0
LINE
  8
APS_GEOMETRY
 10
2.541165
 11
0.0
 20
2.916815
 21
0.37565
  0
LINE
  8
APS_GEOMETRY
 10
0.0
 11
0.0
 20
0.37565
 21
0.0
  0
LINE
  8
APS_GEOMETRY
 10
0.0
 11
0.729204
 20
0.0
 21
0.110485
  0
ARC
  8
APS_GEOMETRY
 10
3.999332
 20
0.112567
 40
3.270129
 50
177.045079
 51
180.036471
  0
ARC
  8
APS_GEOMETRY
 10
2.192195
 20
0.20586
 40
1.460585
 50
171.730616
 51
177.045519
  0
ARC
  8
APS_GEOMETRY
 10
1.7784
 20
0.265998
 40
1.042443
 50
163.257681
 51
171.730456
  0
ARC
  8
APS_GEOMETRY
 10
1.359171
 20
0.392113
 40
0.604655
 50
150.876489
 51
163.257982
  0
ARC
  8
APS_GEOMETRY
 10
1.365135
 20
0.388788
 40
0.611483
 50
138.65773
 51
150.876308
  0
ARC
  8
APS_GEOMETRY
 10
1.533123
 20
0.240985
 40
0.835237
 50
128.959223
 51
138.657609
  0
ARC
  8
APS_GEOMETRY
 10
1.685291
 20
0.052811
 40
1.077238
 50
121.991487
 51
128.959605
  0
ARC
  8
APS_GEOMETRY
 10
2.179684
 20
-0.738644
 40
2.010419
 50
117.446557
 51
121.991491
  0
ARC
  8
APS_GEOMETRY
 10
2.558932
 20
-1.468859
 40
2.833245
 50
114.961484
 51
117.44634
  0
ARC
  8
APS_GEOMETRY
 10
8.123972
 20
-13.424132
 40
16.020292
 50
114.29192
 51
114.961437
  0
ARC
  8
APS_GEOMETRY
 10
-2.612433
 20
10.36337
 40
10.0779
 50
294.291782
 51
295.326466
  0
ARC
  8
APS_GEOMETRY
 10
0.536885
 20
3.70885
 40
2.715778
 50
295.326868
 51
298.110304
  0
ARC
  8
APS_GEOMETRY
 10
0.883315
 20
3.060349
 40
1.980545
 50
298.109966
 51
302.831049
  0
ARC
  8
APS_GEOMETRY
 10
1.332575
 20
2.364059
 40
1.151899
 50
302.83117
 51
309.766371
  0
ARC
  8
APS_GEOMETRY
 10
1.470197
 20
2.198677
 40
0.936746
 50
309.766601
 51
318.743061
  0
ARC
  8
APS_GEOMETRY
 10
1.418945
 20
2.24364
 40
1.004925
 50
318.742847
 51
327.041391
  0
ARC
  8
APS_GEOMETRY
 10
1.240937
 20
2.359064
 40
1.21708
 50
327.041118
 51
333.642222
  0
ARC
  8
APS_GEOMETRY
 10
0.736152
 20
2.609169
 40
1.780427
 50
333.642492
 51
338.649511
  0
ARC
  8
APS_GEOMETRY
 10
0.333589
 20
2.766525
 40
2.212651
 50
338.649644
 51
342.233463
  0
LINE
  8
CONSTRUCTION
 10
0.152615
 11
0.10065
 20
-1.038482
 21
-1.166909
  0
LINE
  8
CONSTRUCTION
 10
0.10065
 11
0.20458
 20
-1.166909
 21
-1.166909
  0
LINE
  8
CONSTRUCTION
 10
0.20458
 11
0.152615
 20
-1.166909
 21
-1.038482
  0
LINE
  8
CONSTRUCTION
 10
0.152615
 11
0.559547
 20
-1.038482
 21
-1.03848
  0
LINE
  8
CONSTRUCTION
 10
0.559547
 11
0.507582
 20
-1.03848
 21
-1.166908
  0
LINE
  8
CONSTRUCTION
 10
0.507582
 11
0.611512
 20
-1.166908
 21
-1.166908
  0
LINE
  8
CONSTRUCTION
 10
0.611512
 11
0.559547
 20
-1.166908
 21
-1.03848
  0
LINE
  8
CONSTRUCTION
 10
0.559547
 11
0.966478
 20
-1.03848
 21
-1.03848
  0
LINE
  8
CONSTRUCTION
 10
0.966478
 11
0.914513
 20
-1.03848
 21
-1.166908
  0
LINE
  8
CONSTRUCTION
 10
0.914513
 11
1.018442
 20
-1.166908
 21
-1.166908
  0
LINE
  8
CONSTRUCTION
 10
1.018442
 11
0.966478
 20
-1.166908
 21
-1.03848
  0
LINE
  8
CONSTRUCTION
 10
0.966478
 11
1.373408
 20
-1.03848
 21
-1.03848
  0
LINE
  8
CONSTRUCTION
 10
1.373408
 11
1.321443
 20
-1.03848
 21
-1.166908
  0
LINE
  8
CONSTRUCTION
 10
1.321443
 11
1.425373
 20
-1.166908
 21
-1.166908
  0
LINE
  8
CONSTRUCTION
 10
1.425373
 11
1.373408
 20
-1.166908
 21
-1.03848
  0
LINE
  8
CONSTRUCTION
 10
1.373408
 11
1.780281
 20
-1.03848
 21
-1.038482
  0
LINE
  8
CONSTRUCTION
 10
1.780281
 11
1.728316
 20
-1.038482
 21
-1.166909
  0
LINE
  8
CONSTRUCTION
 10
1.728316
 11
1.832246
 20
-1.166909
 21
-1.166909
  0
LINE
  8
CONSTRUCTION
 10
1.832246
 11
1.780281
 20
-1.166909
 21
-1.038482
  0
LINE
  8
CONSTRUCTION
 10
0.0
 11
4.0
 20
-1.561751
 21
-1.561751
  0
TEXT
  8
TEXT
 10
0.10065
 20
-1.405784
 30
0.0
 40
0.224
 50
0.0
  1
DOVETAIL DESIGNS
  0
TEXT
  8
TEXT
 10
2.276036
 20
-1.551751
 30
0.0
 40
0.099
 50
0.0
  1
& MILLWORK INC.
  0
TEXT
  8
TEXT
 10
1.092458
 20
-1.640461
 30
0.0
 40
0.07
 50
0.0
  1
Established 1979
  0
TEXT
  8
TEXT
 10
0.1
 20
-1.8
 30
0.0
 40
0.1
 50
0.0
  1
Phone: (406) 248-5010    Website: www.dovetailmt.com
  0
TEXT
  8
TEXT
 10
0.0
 20
-0.25
 30
0.0
 40
0.15625
 50
0.0
  1
CN37
  0
TEXT
  8
TEXT
 10
0.0
 20
-0.5
 30
0.0
 40
0.1
 50
0.0
  1
3-1/16"x2-15/16"
  0
TEXT
  8
TEXT
 10
0.0
 20
-0.65
 30
0.0
 40
0.1
 50
0.0
  1
(3/4"x4-1/8")
  0
ENDSEC
  0
EOF
